Cifra Club

Most Likely To Succeed

Five Iron Frenzy

Cifra: Principal (violão e guitarra)
Selo Cifra Club: esta cifra foi revisada para atender aos critérios oficiais da nossa Equipe de Qualidade.
tom: Db
C#     446664
D#     668886
A      557765
G#     446654
F#5    133XXX
C#5    X466XX
D#5    X688XX
G#5    466XXX
A#5    688XXX

Intro (Guitar 1 w/palm mute):
E|---------------------------------------------|
B|---------------------------------------------|
G|---------------------------------------------|
D|----3----------5-----------------------------|
A|--4---4-445--6---6-665---4----------3-----3--|
E|-----------------------5---5-575--4---4-44---| (4x)

Intro (Guitar 2 w/ska upstrokes):
C#  D#  A  G#   (3x)

Verse: Same as Guitar 2 Intro 4x

Pre-Chorus:

Guitar 1 plays tab
Guitar 2 (w/distortion) plays power chords above tab

    F#5
E|------------------------------------------|
B|------------------------------------------|
G|---6--6--6--6--6--6--6--5--5--5--6--6--4--|
D|---X--X--X--X--X--X--X--X--X--X--X--X--X--|
A|---4--4--4--4--4--4--4--3--3--3--4--4--4--|
E|------------------------------------------|
    C#5
E|------------------------------------------|
B|------------------------------------------|
G|---6--6--6--6--6--6--6--5--5--5--6--6--4--|
D|---X--X--X--X--X--X--X--X--X--X--X--X--X--|
A|---4--4--4--4--4--4--4--3--3--3--4--4--4--|
E|------------------------------------------|
    F#5
E|------------------------------------------|
B|------------------------------------------|
G|---6--6--6--6--6--6--6--5--5--5--6--6--4--|
D|---X--X--X--X--X--X--X--X--X--X--X--X--X--|
A|---4--4--4--4--4--4--4--3--3--3--4--4--4--|
E|------------------------------------------|
    C#5
E|------------------------------------------|
B|------------------------------------------|
G|---6--6--6--6--6--6--6--5--5--5--6--6--4--|
D|---X--X--X--X--X--X--X--X--X--X--X--X--X--|
A|---4--4--4--4--4--4--4--3--3--3--4--4--4--|
E|------------------------------------------|

Then:
D#5  G#5 (3x)
F#5  A#5  G#5

Chorus:

C#5  A#5  G#5  C#5   (4x)

Repeat Verse

Repeat Pre-Chorus

Repeat Chorus, except this time repeat (8x)

Bridge

Guitar 1 plays tab w/palm mute
Guitar 2 plays chords above tab w/ska upstrokes

    G#                   C#
E|----------------------------------------------|
B|----------------------------------------------|
G|----------------------------------------------|
D|----------------------------6----6----6----6--|
A|-------6----6----6----6-4--8-4--8-4--8-4--8---|
E|---4--8-4--8-4--8-4--8------------------------| (2x)

    G#                   A#
E|----------------------------------------------|
B|----------------------------------------------|
G|----------------------------------------------|
D|----------------------------------------------|
A|-------6----6----6----6-----8----8----8----8--|
E|---4--8-4--8-4--8-4--8--6--9-6--9-6--9-6--9---|

    F#                   G#
E|----------------------------------------------|
B|----------------------------------------------|
G|----------------------------------------------|
D|----------------------------------------------|
A|-------4----4----4----4-----6----6----6----6--|
E|---2--6-2--6-2--6-2--6--4--8-4--8-4--8-4--8---|
Outros vídeos desta música
9 exibições
    • ½ Tom
    • A
    • Bb
    • B
    • C
    • Db
    • D
    • Eb
    • E
    • F
    • F#
    • G
    • Ab
  • Adicionar à lista

Afinação da cifra

Afinador online

    0 comentários

    Ver todos os comentários

    Entre para o Cifra Club PRO

    Tenha acesso a benefícios exclusivos no App e no Site

    • Chega de anúncios

    • Mais recursos no app do Afinador

    • Atendimento Prioritário

    • Aumente seu limite de lista

    • Ajude a produzir mais conteúdo

    Cifra Club Pro

    Aproveite o Cifra Club com benefícios exclusivos e sem anúncios
    Cifra Club Pro
    Aproveite o Cifra Club com benefícios exclusivos e sem anúncios
    OK