Cifra Club

Kiss Me Deadly

Generation X

Cifra: Principal (violão e guitarra)
tom: G
(intro - played clean)
E |------------------------------------------|
B |-------3-----------3----3-----3----3----2-|
G |-----0-------0---0-0----0---------------0-|
D |-1/5-----4-----2-----0------0----0------0-|
A |---------------------------3----2----0--2-|
E |----------------------------------------3-|

(verse - played clean)
E |-----------------------------------3--1-------0----|
B |-----------------------------------0--1---------0--|
G |----0----0-----0----0-----0----0---0--2-----1------|
D |-0-0--0-0---0-0--0-0---0-0--0-0----0--3----2-------|
A |--3----2-----3----2-----3----2-----2------2--------|
E |-----------------------------------3-----0---------|

E |-------0-------------2--------------------2-2-2-2-2-2-|
B |---------1---------3---3-----1-1-1-1-1-1--3-3-3-3-3-3-|
G |-----0-----0-----2-------2---0-0-0-0-0-0--2-2-2-2-2-2-|
D |---2-----------0-------------2-2-2-2-2-2--0-0-0-0-0-0-|
A |-3---------------------------3-3-3-3-3-3--------------|
E |------------------------------------------------------|

(pre-chorus - played clean)
E |-3-3---0-0---3----3-3---0-0---3-|-----------------0---|
B |-3-3-x-1-1-x-3----3-3-x-1-1-x-3-|-------------------0-|
G |-0-0-x-0-0-x-0----0-0-x-0-0-x-0-|-------5-5-----1-----|
D |-0-0-x-2-2-x-0----0-0-x-2-2-x-0-|-5-5-x-5-5----2------|
A |-2-2-x-3-3-x-2----2-2-x-3-3-x-2-|-5-5-x-3-3---2-------|
E |-3-3-x-----x-3----3-3-x-----x-3-|-3-3-x------0--------|

(chorus - played clean)
E |----------------------------------------|----------------------------------------|
B |----------------------------------------|-------3---------3----3-----3----3------|
G |---0-0-------0-0--------0-0-------0-0---|-----0-----0---0-0----0---------------0-|
D |--0-0--0----0-0--0-----0-0--0----0-0-0--|-1/5----4-----2-----0------0----0-----0-|
A |-3-3----3--2-2----2---3-3----3--2-2---2-|-------------------------3----2----0--2-|
E |----------------------------------------|--------------------------------------3-|

(verse 2)                                                           |Distortion now
E |------------------------------------------------------|------------------------------|
B |------------------------------------------------------|------------------------------|
G |---0-0------0-0------0-0------0-0------0-0------0-0---|-4--2--1~-1~-1~-1~-1~-1-------|
D |--0-0-0----0-0-0----0-0-0----0-0-0----0-0-0----0-0-0--|-5--3--2~-2~-2~-2~-2~-2-------|
A |-3-3---3--2-2---2--3-3---3--2-2---2--3-3---3--2-2---2-|-5--3--2~-2~-2~-2~-2~-2-------|
E |------------------------------------------------------|-3--1--0~-0~-0~-0~-0~-0-------|

E |--------------------------------------------------------------------|
B |--------------------------------------------------------------------|
G |-5-5-5-5-5-5-5-5--7-7-7-7-7-7-7-7--5-5-5-5-5-5-5-5--7-7-7-7-7-7-7-7-|
D |-5-5-5-5-5-5-5-5--7-7-7-7-7-7-7-7--5-5-5-5-5-5-5-5--7-7-7-7-7-7-7-7-|
A |-3-3-3-3-3-3-3-3--5-5-5-5-5-5-5-5--3-3-3-3-3-3-3-3--5-5-5-5-5-5-5-5-|
E |--------------------------------------------------------------------|

(pre-chorus 2)
E |--------------------------------|-----------------0---|
B |--------------------------------|-------------------0-|
G |-------5-5--------------5-5-----|-------5-5-----1-----|
D |-5-5-x-5-5-x-5----5-5-x-5-5-x-5-|-5-5-x-5-5----2------|
A |-5-5-x-3-3-x-5----5-5-x-3-3-x-5-|-5-5-x-3-3---2-------|
E |-3-3-x-----x-3----3-3-x-----x-3-|-3-3-x------0--------|

(chorus 2)
(guitar 1)
E |----------------------------------------|----------------------------------------|
B |----------------------------------------|-------3---------3----3-----3----3------|
G |---0-0-------0-0--------0-0-------0-0---|-----0-----0---0-0----0---------------0-|
D |--0-0--0----0-0--0-----0-0--0----0-0-0--|-1/5----4-----2-----0------0----0-----0-|
A |-3-3----3--2-2----2---3-3----3--2-2---2-|-------------------------3----2----0--2-|
E |----------------------------------------|--------------------------------------3-|
 
(guitar 2)
E |----------------------------------------|----------------------------------------|
B |----------------------------------------|----------------------------------------|
G |---5~-55----------------5~-55-----------|----------------------------------------|
D |-5-5~-55-----5~-55----5-5~-55-----5~-55-|----------------|TACET|-----------------|
A |-3-3~-33---5-5~-55----3-3~-33---5-5~-55-|----------------------------------------|
E |-----------3-3~-33--------------3-3~-33-|----------------------------------------|

(verse 3)
E |-------------------------------------|   |----1-------0----|
B |-------------------------------------|   |-3--1---------0--|
G |-5-5-5-5-5-5-5-5-5-5-5-5-------------|   |-0--2-----1------|
D |-5-5-5-5-5-5-5-5-5-5-5-5--5----5---5-| x3|-0--3----2-------|
A |-3-3-3-3-3-3-3-3-3-3-3-3--5-55-5-5-5-|   |-2--3---2--------|
E |-------------------------------------|   |-3-----0---------|
PM * * * * * * * * * * * *    **   *

E |--------------------------------------------------------------------|
B |--------------------------------------------------------------------|
G |-5-5-5-5-5-5-5-5--7-7-7-7-7-7-7-7--5-5-5-5-5-5-5-5--7-7-7-7-7-7-7-7-|
D |-5-5-5-5-5-5-5-5--7-7-7-7-7-7-7-7--5-5-5-5-5-5-5-5--7-7-7-7-7-7-7-7-|
A |-3-3-3-3-3-3-3-3--5-5-5-5-5-5-5-5--3-3-3-3-3-3-3-3--5-5-5-5-5-5-5-5-|
E |--------------------------------------------------------------------|

(pre-chorus 3)
E |--------------------------------|-----------------0---|
B |--------------------------------|-------------------0-|
G |-------5-5--------------5-5-----|-------5-5-----1-----|
D |-5-5-x-5-5-x-5----5-5-x-5-5-x-5-|-5-5-x-5-5----2------|
A |-5-5-x-3-3-x-5----5-5-x-3-3-x-5-|-5-5-x-3-3---2-------|
E |-3-3-x-----x-3----3-3-x-----x-3-|-3-3-x------0--------|

(chorus 3)
(guitar 1)
E |----------------------------------------|
B |----------------------------------------|
G |---0-0-------0-0--------0-0-------0-0---|
D |--0-0--0----0-0--0-----0-0--0----0-0-0--|
A |-3-3----3--2-2----2---3-3----3--2-2---2-|
E |----------------------------------------|
(guitar 2)
E |----------------------------------------|
B |----------------------------------------|
G |---5~-55----------------5~-55-----------|
D |-5-5~-55-----5~-55----5-5~-55-----5~-55-|
A |-3-3~-33---5-5~-55----3-3~-33---5-5~-55-|
E |-----------3-3~-33--------------3-3~-33-|

(pre-solo)
(guitar 1)
E |-------------------------------------------------------|
B |-------------------------------------------------------|
G |-----------------------------------5-5-5-5-5-5-5bu-5---|
D |-5-5-5-5-5-5-5-5-------------------------------------5-|
A |------------------7-7-7-7-7-7-7-7----------------------|
E |-------------------------------------------------------|
(guitar 2)                                                       x2
E |---------------------------------------------------------|  /
B |---------------------------------------------------------| /
G |------------------1-1-1-1-1-1-1-1--5-5-5-5-5-5-5bu-5-----|
D |-5-5-5-5-5-5-5-5--2-2-2-2-2-2-2-2--5-5-5-5-5-5-5bu-5-5---|
A |-5-5-5-5-5-5-5-5--2-2-2-2-2-2-2-2--3-3-3-3-3-3-3bu-3-5---|
E |-3-3-3-3-3-3-3-3--0-0-0-0-0-0-0-0--------------------3---|

(solo)
(guitar 1)
E |-------------------------------------------------------|
B |-------------------------------------------------------|
G |------------------1-1-1-1-1-1-1-1--5-5-5-5-5-5-5bu-5---|
D |-5-5-5-5-5-5-5-5--2-2-2-2-2-2-2-2--5-5-5-5-5-5-5bu-5-5-|
A |-5-5-5-5-5-5-5-5--2-2-2-2-2-2-2-2--3-3-3-3-3-3-3bu-3-5-|
E |-3-3-3-3-3-3-3-3--0-0-0-0-0-0-0-0--------------------3-|

(guitar 2)
E |-------------------------------------------------------|
B |-------------------------------------------------------|
G |-1/12~~~~-12-9~~~~~-9-/10~~~~---9----10---10~~--12v~~~-|
D |-------------------------------------------------------|
A |-------------------------------------------------------|
E |-------------------------------------------------------|

(guitar 1)
E |-------------------------------------------------------|
B |-------------------------------------------------------|
G |------------------1-1-1-1-1-1-1-1--5-5-5-5-5-5-5bu-5---|
D |-5-5-5-5-5-5-5-5--2-2-2-2-2-2-2-2--5-5-5-5-5-5-5bu-5-5-|
A |-5-5-5-5-5-5-5-5--2-2-2-2-2-2-2-2--3-3-3-3-3-3-3bu-3-5-|
E |-3-3-3-3-3-3-3-3--0-0-0-0-0-0-0-0--------------------3-|

(guitar 2)
E |-------------------------------------------------------|
B |--------------------------------11--------10-----------|
G |-1/12~~~~-12-9~~~~~-9-/10~~~~-------------------12v~~~-|
D |-------------------------------------------------------|
A |-------------------------------------------------------|
E |-------------------------------------------------------|

(post solo)
(guitar 1)
E |----------------------------------------|
B |----------------------------------------|
G |---0-0-------0-0--------0-0-------0-0---|
D |--0-0--0----0-0--0-----0-0--0----0-0-0--|
A |-3-3----3--2-2----2---3-3----3--2-2---2-|
E |----------------------------------------|
(guitar 2)
E |--------------------------------------------|
B |--------------------------------------------|
G |-~~~~~123p0---------5~-55-------------------|
D |----------------------5-5~-55-----5~-55-----|
A |----------------------3-3~-33---5-5~-55-----|
E |--------------------------------3-3~-33-----|

(verse 4)
(guitar 1)
E |----------------------|
B |----------------------|
G |------0---------------|
D |-----2-2-2-------0----|
A |-333------------2-2-2-|
E |------------333-------|
(guitar 2 )                x5
E |------------------------|  /
B |------------------------| /
G |---5--5-5---------------|
D |-5-5~-5-5------5--5-5---|
A |-3-3~-3-3----5-5~-5-5---|
E |-------------3-3~-3-3---|

(guitar 1)
E |----------------------------------|----------------------------------|
B |--------------------------11-10---|--------------------------11-10---|
G |-5-5-5-5-5-5-5-5--5-5-5-5------12-|-7-7-7-7-7-7-7-7--7-7-7-7------12-|
D |-5-5-5-5-5-5-5-5--5-5-5-5---------|-7-7-7-7-7-7-7-7--7-7-7-7---------|
A |-3-3-3-3-3-3-3-3--5-5-5-5---------|-5-5-5-5-5-5-5-5--5-5-5-5---------|
E |----------------------------------|----------------------------------|
PM * * * * * * * *  * * * *           * * * * * * * *  * * * *
(guitar 2)                                                                      / x2
E |----------------------------------|------------------------------------|  /
B |----------------------------------|------------------------------------| /
G |-5-5-5-5-5-5-5-5--5-5-5-5-5-5-5-5-|-7-7-7-7-7-7-7-7--7-7-7-7-7-7-7-7---|
D |-5-5-5-5-5-5-5-5--5-5-5-5-5-5-5-5-|-7-7-7-7-7-7-7-7--7-7-7-7-7-7-7-7---|
A |-3-3-3-3-3-3-3-3--5-5-5-5-5-5-5-5-|-5-5-5-5-5-5-5-5--5-5-5-5-5-5-5-5---|
E |----------------------------------|------------------------------------|
PM * * * * * * * *  * * * * * * * *   * * * * * * * *  * * * * * * * *

(pre-outro)
E |--------------------------|--------------------------|
B |--------------------------|--------------------------|
G |------55-----------55-----|------55-----------55-----|
D |-55-x-55-x-5--55-x-55-x-5-|-55-x-55-x-5--55-x-55-x-5-|
A |-55-x-33-x-5--55-x-33-x-5-|-55-x-33-x-5--55-x-33-x-5-|
E |-33-x----x-3--33-x----x-3-|-33-x----x-3--33-x----x-3-|

E |---------------------------------------|------------------------------------------|
B |---------------------------------------|------------------------------------------|
G |-----------00000000-----------00000000-|----------00000000------------/10-9-10-11-|
D |-5555-3333-11111111-5555-3333-11111111-|5555-3333-11111111-5555-3333--------------|
A |-5555-3333-22222222-5555-3333-22222222-|5555-3333-22222222-5555-3333--------------|
E |-3333-1111-00000000-3333-1111-00000000-|3333-1111-00000000-3333-1111--------------|
PM **** ****  *** **  **** ****  *** **   **** ****  *** **  **** ****

(outro)
(guitar 1)
E |----------------------------------------|
B |----------------------------------------|
G |---0-0-------0-0--------0-0-------0-0---|
D |--0-0--0----0-0--0-----0-0--0----0-0-0--|
A |-3-3----3--2-2----2---3-3----3--2-2---2-|
E |----------------------------------------|
(guitar 2)                                       x4
E |------------------------------------------|  /
B |------------------------------------------| /
G |---5~-55----------------5~-55-------------|
D |-5-5~-55-----5~-55----5-5~-55-----5~-55---|
A |-3-3~-33---5-5~-55----3-3~-33---5-5~-55---|
E |-----------3-3~-33--------------3-3~-33---|

End
(guitar 1)
E |--------------------------------------------3-|
B |-------3-----------3----3-----3----3----2~~-3-|
G |-----0-------0---0-0----0---------------0~~-0-|
D |-1/5-----4-----2-----0------0----0------0~~-0-|
A |---------------------------3----2----0--2~~-2-|
E |----------------------------------------3~~-3-|
(guitar 2)
E |----------------------------------------------|
B |----------------------------------------------|
G |----------------------------------------4~~-2-|
D |----------------------------------------5~~-5-|
A |----------------------------------------5~~-5-|
E |----------------------------------------3~~-3-|
Composição de Billy Idol / Tony James
478 exibições
    • ½ Tom
    • A
    • Bb
    • B
    • C
    • Db
    • D
    • Eb
    • E
    • F
    • F#
    • G
    • Ab
  • Adicionar à lista

    0 comentários

    Ver todos os comentários

    Conseguiu tocar?

    1 Tocaram 0 Ainda não

    Grave um vídeo tocando Kiss Me Deadly e nos envie!

    00:00 / 00:00
    Outros vídeos desta música
    Repetir Qualidade Automático
    Outros vídeos desta música
    00:00 / 00:00
    Automático

    Cifra Club Pro

    Aproveite o Cifra Club com benefícios exclusivos e sem anúncios
    Cifra Club Pro
    Aproveite o Cifra Club com benefícios exclusivos e sem anúncios
    OK