Cifra Club

Esa hembra es mala

Gloria Trevi

Cifra: Principal (violão e guitarra)
Selo Cifra Club: esta cifra foi revisada para atender aos critérios oficiais da nossa Equipe de Qualidade.
tom: Am
Intro:

     Am
E|------0-1-0-------| I
B|-----1--------1---| I
G|----2---------2---| IEsta Es la Del Intro
D|---2----------2---| I
A|------------------| I
E|------------------| I

Voy a Presentarte a Esa,

E|------0-1-0-------| I
B|-----1--------1---| I
G|----2---------2---| I
D|---2----------2---| I
A|------------------| I
E|------------------| I

Am                     E7
La que se duerme en tu cama,

E|---12-12-12-12--10--8-----| I
B|---13-13-13-13--12--10----| I
G|--------------------------| I
D|--------------------------| I
A|--------------------------| I
E|--------------------------| I

                    Dm
La que es toda una dama,
                  E7
La que no te pide nada,
                   Am
Pero le gusta lo mejor.


Am                 E7
Voy a Presentarte a Esa,
                 Am
La que dice que te ama,
                 Dm
La que nunca dice no,
                     E7
La que daría hasta su vida,
                    Am
Con tal de hacerte Feliz.


                    Dm
Esa Mujer fue mi amiga,
G7                C
Maldito sea aquel día,
Am                 Dm
Robó lo que más quería,
E7              Am
Y todo por ambición,
                       Dm
Yo sé que ella estan bonita,
G7                  C
Que hasta parece bendita,
Am                 Dm
Pero es un ángel caído,
E7               Am
Ella es una maldición.


Coro:
               E7
Esa hembra es mala,

Esa hembra hace daño,
                Am
Esa hembra no quiere,

Esa Hembra te miente,
               E7
Esa hembra es mala,

Trae veneno en los labios,
                 Am
Su caricia es insulto,

Para tú corazon.
                Dm
Esa Hembra que ama,
G7               C
Está jugando contigo,
Am              Dm
Esa hembra perfecta,
E7               Am
Es puritita traición.


Intro:

     Am
E|------0-1-0-------| I
B|-----1--------1---| I
G|----2---------2---| IEsta Es la Del Intro
D|---2----------2---| I
A|------------------| I
E|------------------| I

Voy a Presentarte a Esa,

E|------0-1-0-------| I
B|-----1--------1---| I
G|----2---------2---| I
D|---2----------2---| I
A|------------------| I
E|------------------| I

                       E7
La que se duerme en tu cama,

E|---12-12-12-12--10--8-----| I
B|---13-13-13-13--12--10----| I
G|--------------------------| I
D|--------------------------| I
A|--------------------------| I
E|--------------------------| I

                    Dm
La que es toda una dama,
                  E7
La que no te pide nada,
                   Am
Pero le gusta lo mejor.


                    Dm
Esa Mujer fue mi amiga,
G7                C
Maldito sea aquel día,
Am                 Dm
Robó lo que más quería,
E7              Am
Y todo por ambición,
                       Dm
Yo sé que ella estan bonita,
G7                  C
Que hasta parece bendita,
Am                 Dm
Pero es un ángel caído,
E7               Am
Ella es una maldición.


Coro:(Esta vez Se Hace 2 Veces)

               E7
Esa hembra es mala,

Esa hembra hace daño,
                Am
Esa hembra no quiere,

Esa Hembra te miente,
               E7
Esa hembra es mala,

Trae veneno en los labios,
                 Am
Su caricia es insulto,

Para tú corazon.
                Dm
Esa Hembra que ama,
G7               C
Está jugando contigo,
Am              Dm
Esa hembra perfecta,
E7               Am
Es puritita traición.

     Am
E|------0-1-0-------| I
B|-----1--------1---| I
G|----2---------2---| I
D|---2----------2---| I
A|------------------| I
E|------------------| I

Am: eI--5--I  E7: eI--7--I
B|--5--| I      bI--9--I
G|--5--| I      gI--7--I
D|--7--| I      DI--9--I
A|--7--| I      AI--7--I
E|--5--| I      EI--7--I

Dm: eI--5--I  G7: eI--3--I
B|--6--| I      bI--3--I
G|--7--| I      gI--4--I
D|--7--| I      DI--3--I
A|--5--| I      AI--5--I
E|--5--| I      EI--3--I

C: eI--3--I
B|--5--| I
G|--5--| I
D|--5--| I
A|--3--| I
E|--3--| I
Outros vídeos desta música
    3.960 exibições
      • ½ Tom
      • Am
      • Bbm
      • Bm
      • Cm
      • C#m
      • Dm
      • Ebm
      • Em
      • Fm
      • F#m
      • Gm
      • G#m
    • Adicionar à lista

    Afinação da cifra

    Afinador online

      0 comentários

      Ver todos os comentários

      Entre para o Cifra Club PRO

      Tenha acesso a benefícios exclusivos no App e no Site

      • Chega de anúncios

      • Badges exclusivas

      • Mais recursos no app do Afinador

      • Atendimento Prioritário

      • Aumente seu limite de lista

      • Ajude a produzir mais conteúdo

      Cifra Club Pro

      Aproveite o Cifra Club com benefícios exclusivos e sem anúncios
      Cifra Club Pro
      Aproveite o Cifra Club com benefícios exclusivos e sem anúncios
      OK