Cifra Club

Revolutionary Kind

Gomez

Cifra: Principal (violão e guitarra)
Selo Cifra Club: esta cifra foi revisada para atender aos critérios oficiais da nossa Equipe de Qualidade.
tom: Bm
Intro (and first verse) to Revolutionary Kind by Gomez. 
Guitar 1 is Acoustic (or Electric - clean)
Guitar 2 is Electric - clean.

Guitar 2 comes in once the Guitar 1 part has been played through twice.

Guitar 1 -
E|---------------------------------------------------------------------------|
B|---------------------------------------------------------------------------|
G|---------------------------------------------------------------------------|
D|-----6-----------6-----------6--------------9------------------------------|
A|---7---7-5---5-7---7-5---5-7---7-5---5-7/10---10-9-10-9--------------------|
E|-----------7-----------7-----------7---------------------------------------|

Guitar 2 - 
E|---------------------------------------------------------------------------|
B|---------------------------------------------------------------------------|
G|---------------------------------------------------------------------------|
D|--4h5p4---6---4---------6--4---------6---4---------------4h5p4-------------|
A|--------7---7---5---5-7------5---5-7---7---5---5-7-----7-------------------|
E|------------------7------------7-------------7-----5-6---------------------|


************************************

| h   Hammer-on
| p   Pull-off
| /   Slide up
Outros vídeos desta música
    8 exibições
      • ½ Tom
      • Am
      • Bbm
      • Bm
      • Cm
      • C#m
      • Dm
      • Ebm
      • Em
      • Fm
      • F#m
      • Gm
      • G#m
    • Adicionar à lista

    Afinação da cifra

    Afinador online

      0 comentários

      Ver todos os comentários

      Conseguiu tocar?

      0Tocaram0Ainda não

      Grave um vídeo tocando Revolutionary Kind e nos envie!

      Toque também

      1. Imagem do artista ReefPlace Your Hands Reef
      2. Imagem do artista The Beta BandDry The Rain The Beta Band
      3. Imagem do artista ElbowNot A Job Elbow
      4. Imagem do artista Turin BrakesRain City Turin Brakes

      Entre para o Cifra Club PRO

      Tenha acesso a benefícios exclusivos no App e no Site

      • Chega de anúncios

      • Badges exclusivas

      • Mais recursos no app do Afinador

      • Atendimento Prioritário

      • Aumente seu limite de lista

      • Ajude a produzir mais conteúdo

      Cifra Club Pro

      Aproveite o Cifra Club com benefícios exclusivos e sem anúncios
      Cifra Club Pro
      Aproveite o Cifra Club com benefícios exclusivos e sem anúncios
      Ops (: Contenido disponible sólo en portugués.
      OK