Cifra Club

See You in Heaven

Guardian

Cifra: Principal (violão e guitarra)
Selo Cifra Club: esta cifra foi revisada para atender aos critérios oficiais da nossa Equipe de Qualidade.
tom: B
Parte 1 de 4

    B              E          G#m
E|--------------------------------------|
B|----------------7/9--9/11-11-9-7------|
G|----4h6-4h6h4-------------------------|
D|--4h6---------------------------------|
A|--------------------------------------|
E|--------------------------------------|

Parte 2 de 4

      G#m       F#
E|--------------------------------------|
B|--------------------------------------|
G|----4h6-4h6h4---3h4-3-----------------|
D|------------------4-------------------|
A|-------------------4h6-4--------------|
E|--------------------------------------|

Parte 3 de 4

     B       E             G#m    F#
E|--------------7/9---7-9/11------------|
B|-------7/9--7h9-----------7/9/--------|
G|--4h6-4h6h4-----------------6/8/6/8/6-|
D|-4h6----------------------------------|
A|--------------------------------------|
E|--------------------------------------|

Parte 4 de 4

     E   F#       G#m     F#
E|--------------------------------------|
B|-------------------------------7------|
G|--1-1-1h3-3-3-4----4-6-----6/8--8/6/4-|
D|----------------4-6-8--4-6------------|
A|--------------------------------------|
E|--------------------------------------|

B                         E
It's hard to say goodbye, my friend
           G#m              F#
But this waiting can last forever
B                       E
Sooner or later, the sun must set
G#m                   F#
Ending this time together

   E               F#      G#m
I wish that I had one more chance
   C#m           B         F#
To spend another day with you
      E           F#       G#m                  F#
But even though I know I can't, I'll see you in heaven
F#
I'll see you in heaven

[Refrão]

         B                            E
The only thing that hurts more than losing you
    G#m                  F#
Are all of the years of living without you
 B                   E
I wanna run back to you
     G#m               F#
And show you the life I've lived without you
        C#m
'Cause living without you
        E               F#     B              F#
Is the only thing that hurts more than you

B                    E
I see a picture of a little child
 G#m            F#
Standing alone, wondering where you are
B                        E
I can't believe how this child has grown
G#m               F#
Living this life, sometimes so alone

E             F#       G#m
Wishing I had one more chance
   C#m              E     F#
To have you hold me once again
E                 F#        G#m                     F#
And even though I know you can't, you'll hold me in heaven
F#
You'll hold me in heaven

[Refrão]

A                         E           G                         B
I've let so many years of life go by, thinking it's all worked out
A               E/G#           G                                      F#   (hold F#)
Now I realize I do know how to say that it's over, and let you go for now
         E               F#       G#m
Still, I wish that I had one more chance
     C#m             E       F#
To say "I love you" one more time
        E       F#        G#m                  F#
And even though I know I can't, I'll say it in heaven
F#
I'll say it in heaven
Outros vídeos desta música
    8.640 exibições
      • ½ Tom
      • A
      • Bb
      • B
      • C
      • Db
      • D
      • Eb
      • E
      • F
      • F#
      • G
      • Ab
    • Adicionar à lista

    Afinação da cifra

    Afinador online

      0 comentários

      Ver todos os comentários

      Entre para o Cifra Club PRO

      Tenha acesso a benefícios exclusivos no App e no Site

      • Chega de anúncios

      • Badges exclusivas

      • Mais recursos no app do Afinador

      • Atendimento Prioritário

      • Aumente seu limite de lista

      • Ajude a produzir mais conteúdo

      Cifra Club Pro

      Aproveite o Cifra Club com benefícios exclusivos e sem anúncios
      Cifra Club Pro
      Aproveite o Cifra Club com benefícios exclusivos e sem anúncios
      Ops (: Contenido disponible sólo en portugués.
      OK