Cifra Club

Aprenda

Je te promet

Johnny Hallyday

Cifra: Principal (violão e guitarra)
tom: C
C
Je te promets le sel au baiser de ma bouche
Em
Je te promets le miel à ma main qui te touche
Dm
Je te promets le ciel au dessus de ta couche
F
Des fleurs et des dentelles pour que
                  G
tes nuits soient douces

C
Je te promets la clé des secrets de mon âme
Em
Je te promets ma vie de mes rires à mes larmes
Dm
Je te promets le feu à la place des armes
F
Plus jamais des adieux rien que des
 G
au-revoirs

F
J'y crois comme à la terre, j'y crois
        C
comme au soleil
Dm
J'y crois comme un enfant, comme on
           Am
peut croire au ciel
F
J'y crois comme à ta peau, à tes bras
   C
qui me serrent
Dm
J'te promets une histoire différente
   Am
des autres
F                               G
J'ai tant besoin d'y croire encore

C
Je te promets des jours tout bleus comme tes veines
Em
Je te promets des nuits rouges comme tes rêves
Dm
Des heures incandescentes et des minutes blanches
F
Des secondes insouciantes au rythme de
   G
tes hanches

C
Je te promets mes bras pour porter tes angoisses
Em
Je te promets mes mains pour que tu les embrasses
Dm
Je te promets mes yeux si tu ne peux plus voir
F
J'te promets d'être heureux si tu n'as
  G
plus d'espoir

F
J'y crois comme à la terre, j'y crois
     C
comme au soleil

Dm
J'y crois comme un enfant, comme on
           Am
peut croire au ciel

F
J'y crois comme à ta peau, à tes bras
       C
qui me serrent
Dm
J'te promets une histoire différente
  Am
des autres
F                       G
Si tu m'aides à y croire encore

F                               C
Et même si c'est pas vrai, si on te l'a trop fait
Dm                              Am
Si les mots sont usés, comme écris à la craie
F
On fait bien des grands feu en frottant
 C
des cailloux
Dm                              Am
Peut-être avec le temps à la force d'y croire
F                       G
On peut juste essayer pour voir

F                               C
Et même si c'est pas vrai, même si je mens
Dm                              Am
Si les mots sont usés, légers comme du vent
F                               C
Et même si notre histoire se termine au matin
Dm                                  Am
J'te promets un moment de fièvre et de douceur
F                               G
Pas toute la nuit mais quelques heures ...

C
Je te promets le sel au baiser de ma bouche
Em
Je te promets le miel à me main qui te touche
Dm
Je te promets le ciel au dessus de ta couche
F
Des fleurs et des dentelles pour que
                  G
tes nuits soient douces.
Solo:
E|--------------------------|
B|-----------------8-8-10---|
G|---7/9-9-7-9-9-9--------9-|
D|-5------------------------|
A|--------------------------|
E|--------------------------|

E|---------------------------|
B|---------------------------|
G|-9-7-7-7----7-7----7-7-9-7-|
D|---------10-----10---------|
A|---------------------------|
E|---------------------------|

E|---------------------------|
B|---------------------------|
G|-9-7-7-7----7-7-7-9-10-9-7-|
D|---------10----------------|
A|---------------------------|
E|---------------------------|

E|----------------------------8----|
B|---8/10-10-10-10-10-10-10-8------|
G|-5-------------------------------|
D|------------------------------10-|
A|---------------------------------|
E|---------------------------------|

E|-----------------------------------|
B|------------------------------10---|
G|----10-10-10-10-10-10-10-10-9------|
D|-10------------------------------7-|
A|-----------------------------------|
E|-----------------------------------|

E|-----------------------------------|
B|---8/10-10-10-10-8----8-8-8--------|
G|-5-----------------10-------9p7----|
D|--------------------------------10-|
A|-----------------------------------|
E|-----------------------------------|

E|---------------------|
B|---8/10-10-10-8----8-|
G|-5--------------10---|
D|---------------------|
A|---------------------|
E|---------------------|
Colaboração e revisão:
  • Pedro Laerte
2.461 exibições
    • ½ Tom
    • A
    • Bb
    • B
    • C
    • Db
    • D
    • Eb
    • E
    • F
    • F#
    • G
    • Ab
  • Adicionar à lista

    0 comentários

    Ver todos os comentários

    Conseguiu tocar?

    0 Tocaram 0 Ainda não

    Grave um vídeo tocando Je te promet e nos envie!

    00:00 / 00:00
    outros vídeos desta música
    repetir qualidade Automático
    Outros vídeos desta música
    00:00 / 00:00
    Automático

    Cifra Club Pro

    Aproveite o Cifra Club com benefícios exclusivos e sem anúncios
    Cifra Club Pro
    Aproveite o Cifra Club com benefícios exclusivos e sem anúncios
    OK