Cifra Club

Aceita O Perdão De Jesus

Harpa Cristã

Cifra: Tab (violão e guitarra)
tom: Fm
E|-------------4-6-8----4-|---------4-6-4--------|-------------4-6-8----8-|
B|-4-4-4-4---4-----4-4----|-8-8-8-8-4-4-4----4---|-4-4-4-4---4-----4-4--4-|
G|-5-5-5-5-5-5-5-6---5--5-|-6-6-6-6-5-6-5----5---|-5-5-5-5-5-5-5-6---5----|
D|-6-6-6-6-6-6-6-6-6-6--6-|-8-8-8-8----------6---|-6-6-6-6-6-6-6-6-6-6--6-|
A|---------6--------------|-6-6-6-6-6-6----------|---------6--------------|
E|-4-4-4-4-4-4-4-4-4-4--4-|-------------4----4---|-4-4-4-4-4-4-4-4-4-4--4-|

E|-6-6-6-6-4-1------------|-8----4---------------|-8--------8--6---8-6---|
B|-4-4-4-3-3-3-4----------|-4--------6--4---6-4--|-4--------4----6-------|
G|-0-0-0-----1-0----------|------5---6--5-5-6-5--|-------------7-7-7-8---|
D|-------3-3--------------|-6--------6--6-6-6-6--|-6--------6--6-6-6-----|
A|-----------1-6---4-3----|------6--------6------|-------------------10--|
E|-6-6-6-6-6------------6-|-4----4---4--4-4-4-4--|-4----3---4--6-6-6-11--|

E|-6----11--11-9--------8---9--|-8-6-4-3-4-6-4--------|----------------------|
B|----------------9--11-----11-|-9-8-4-4-4-4-4--------|----------------------|
G|-8----11--11-10-10-10-9---10-|-8-6-5-3-5-6-5--------|----------------------|
D|-6----10---------------------|----------------------|----------------------|
A|------11--11-11-11-8--10-----|-6-6-6-6-6-6----------|----------------------|
E|-------------9--9--9--8---6--|-------------4--------|----------------------|

00:00 / 00:00
Outros vídeos desta música
Repetir
Outros vídeos desta música
Compositor não encontrado.
Colaboração e revisão:
  • Helon Oliveira
51 exibições
    • ½ Tom
    • Am
    • Bbm
    • Bm
    • Cm
    • C#m
    • Dm
    • Ebm
    • Em
    • Fm
    • F#m
    • Gm
    • G#m
  • Adicionar à lista

    0 comentários

    Ver todos os comentários

    Entre para oCifra Club PRO

    Tenha acesso a benefícios exclusivos no App e no Site

    • Chega de anúncios

    • Prioridade de compra em lançamentos

    • Mais recursos no app do Afinador

    • Atendimento Prioritário

    • Descontos nos produtos Cifra Club

    • Ajude a produzir mais conteúdo

    00:00 / 00:00

    Cifra Club Pro

    Aproveite o Cifra Club com benefícios exclusivos e sem anúncios
    Cifra Club Pro
    Aproveite o Cifra Club com benefícios exclusivos e sem anúncios
    OK