Cifra Club

Black Friday Cifra Club

Anseio Um Lugar de Amor

Harpa Cristã

Cifra: Principal (violão e guitarra)
tom: G
E|-----------------0-----|-3---5---7---7---8---4-|-5---------------------|
B|---------0---0-------7-|-0---0---3-------7---6-|-7-------3---3---5---7-|
G|---------7---7-------4-|-----0-------7-------4-|-5-------5---4-------4-|
D|---------5---5-------0-|-0-------5---5---7-----|---------4---5-------0-|
A|-----------------------|-------------5-------5-|-5-------5-------------|
E|---------3---3-------3-|-3---3---3-------------|-------------3-------3-|

E|-3---5---7---7---8---4-|-5-------5-----------10-|-10--12--10--10--8------|
B|-0---0---3-------7---6-|-7-------7-----------0--|-0-------0-----------12-|
G|-----0-------7-------4-|-5-------5-----------10-|-10------10--9-------9--|
D|-0-------5---5---7---0-|-0-------0--------------|------------------------|
A|-------------5---------|---------------------10-|-10------10--10------10-|
E|-3---3---3-------------|-------------3----------|-------------8-------8--|

E|-10--8---5-------------|-7-------5---7-------5-|-3--------------------|
B|---------5---8---7---8-|-----------------------|-0--------------------|
G|-9-------5---7---5---4-|-6-------6---7-------5-|-0--------------------|
D|-------------9---7---5-|---------5---0-------0-|----------------------|
A|-11--12------5-------7-|-7-----------9-------9-|----------------------|
E|-8-------8-------------|-5-------5-------------|-3--------------------|

00:00 / 00:00
Outros vídeos desta música
Repetir
Outros vídeos desta música
Compositor não encontrado.
Colaboração e revisão:
  • Helon Oliveira
1.175 exibições
    • ½ Tom
    • A
    • Bb
    • B
    • C
    • Db
    • D
    • Eb
    • E
    • F
    • F#
    • G
    • Ab
  • Adicionar à lista

    0 comentários

    Ver todos os comentários

    Entre para oCifra Club PRO

    Tenha acesso a benefícios exclusivos no App e no Site

    • Chega de anúncios

    • Prioridade de compra em lançamentos

    • Mais recursos no app do Afinador

    • Atendimento Prioritário

    • Descontos nos produtos Cifra Club

    • Ajude a produzir mais conteúdo

    00:00 / 00:00

    Cifra Club Pro

    Aproveite o Cifra Club com benefícios exclusivos e sem anúncios
    Cifra Club Pro
    Aproveite o Cifra Club com benefícios exclusivos e sem anúncios
    OK