Cifra Club

Calvário, Revelação de Amor

Harpa Cristã

Cifra: Principal (violão e guitarra)
Selo Cifra Club: esta cifra foi revisada para atender aos critérios oficiais da nossa Equipe de Qualidade.
tom: F
E|---------------1-|----------------3-1-3-|----------10------|-3----5--6-6-5-4-|
B|-------------1-1-|-10-10-10-10-10-3-1-3-|-10-11-13----13---|-3----3--5-5-5-5-|
G|-------------1-1-|-10-10-10-10-10-3-2-3-|-10-12-14-12-11---|-3----3--0-0-5-5-|
D|-----------------|-10-10-10-10-10-3-3-3-|-10-12-10----0----|-----------------|
A|-------------3-3-|----------------------|----------13-12---|---------3-3-3-3-|
E|-----------------|-13-13-13-13-13-------|-13-13-12-11------|-3----3----------|

E|-5---------------|-5-5-5-5-5-3-1-3-|-------8--10-8----|-3----5--6-6-5-3-|
B|-6-------------6-|-6-6-6-6-6-3-1-3-|-10-11-10-8--7----|-3----3--5-5-5-5-|
G|-5-----------5-5-|-5-5-5-5-5-3-2-3-|-10-12------------|-3----5--7-7-5-3-|
D|-3-----------7-7-|-3-3-3-3-3-3-3-3-|-10-12-10-8--7----|-5----5--5-5-----|
A|-------------3-3-|-----------------|------------------|---------------3-|
E|-----------------|-----------------|-13-13-12-11-10---|-------------8---|

E|-------------8-|-8-------5---8-|-8-------5----|-3-------3---6-|-5-----------8-|
B|-6-----------6-|-6-----------6-|-6-------4----|-3-------5---5-|-6-----------6-|
G|-5-------------|---------5-----|---------5----|-3-------3---7-|-5-------------|
D|-7-----------7-|-7-----------7-|-7-------4----|-5-------------|-------------7-|
A|-8-----------8-|-8-------8---8-|-8------------|---------3-----|-8-----------8-|
E|---------------|---------------|--------------|-------------8-|---------------|

E|-8-------5---8-|-8-------5----|-3----5--6-6-5-3-|--------------|
B|-6-----------6-|-6-------7----|-3----6--5-5-5-5-|-6------------|
G|---------5-----|---------5----|-3----5--7-7-5-3-|-5------------|
D|-7-----------7-|-7------------|-5----5--5-5-----|-7------------|
A|-8-------8---8-|-8-------9----|---------------3-|-8------------|
E|---------------|--------------|-------------8---|--------------|

Outros vídeos desta música
    8.314 exibições
      • ½ Tom
      • A
      • Bb
      • B
      • C
      • Db
      • D
      • Eb
      • E
      • F
      • F#
      • G
      • Ab
    • Adicionar à lista

    Afinação da cifra

    Afinador online

      0 comentários

      Ver todos os comentários

      Entre para o Cifra Club PRO

      Tenha acesso a benefícios exclusivos no App e no Site

      • Chega de anúncios

      • Badges exclusivas

      • Mais recursos no app do Afinador

      • Atendimento Prioritário

      • Aumente seu limite de lista

      • Ajude a produzir mais conteúdo

      Cifra Club Pro

      Aproveite o Cifra Club com benefícios exclusivos e sem anúncios
      Cifra Club Pro
      Aproveite o Cifra Club com benefícios exclusivos e sem anúncios
      Ops (: Contenido disponible sólo en portugués.
      OK