Cifra Club

Espero Em Ti

Harpa Cristã

Cifra: Principal (violão e guitarra)
Selo Cifra Club: esta cifra foi revisada para atender aos critérios oficiais da nossa Equipe de Qualidade.
tom: Eb
E|----------------|--------------|----------------|--------------|-------------8-|
B|---------8---11-|-11---9--8----|-6-------6---9--|-9----8--6----|-8-------6-----|
G|-0-------8---12-|-12---10-8----|-7-------7---10-|-10---8--7----|-8-------7---8-|
D|-13------8---8--|-8----8--8----|-8-------8---8--|-8----8--8----|-8-------8---7-|
A|----------------|--------------|----------------|--------------|-6-------8---8-|
E|-11------11--11-|-11---11-11---|-6-------6---6--|-6----6--6----|---------------|

E|-6------------|-6--------------|-6----8--6----|-6--------------|-6----8--6----|
B|--------------|-8-------8---9--|-8----9--8----|-8-------8---9--|-8----9--8----|
G|-7------------|---------8---10-|-8----8--8----|---------8---10-|-8----8--8----|
D|-8------------|-8-------8---8--|--------------|-8-------8---8--|--------------|
A|--------------|-6-------6---6--|-6----6--6----|-6-------6---6--|-6----6--6----|
E|-6------------|----------------|--------------|----------------|--------------|

E|-11------10--8-|-6----4--3-----|---------6----|--------------|--------------|
B|---------------|-4----4--4---4-|-6-------3----|--------------|--------------|
G|-8-------8---8-|-0----5--3---3-|-5------------|-0------------|--------------|
D|-10------8---6-|---------------|-6-------3----|-13-----------|--------------|
A|-6-------6---6-|-6----6--6-----|--------------|--------------|--------------|
E|---------------|-------------3-|-4-------6----|-11-----------|--------------|

Outros vídeos desta música
    2.281 exibições
      • ½ Tom
      • A
      • Bb
      • B
      • C
      • Db
      • D
      • Eb
      • E
      • F
      • F#
      • G
      • Ab
    • Adicionar à lista

    Afinação da cifra

    Afinador online

      0 comentários

      Ver todos os comentários

      Entre para o Cifra Club PRO

      Tenha acesso a benefícios exclusivos no App e no Site

      • Chega de anúncios

      • Badges exclusivas

      • Mais recursos no app do Afinador

      • Atendimento Prioritário

      • Aumente seu limite de lista

      • Ajude a produzir mais conteúdo

      Cifra Club Pro

      Aproveite o Cifra Club com benefícios exclusivos e sem anúncios
      Cifra Club Pro
      Aproveite o Cifra Club com benefícios exclusivos e sem anúncios
      Ops (: Contenido disponible sólo en portugués.
      OK