Cifra Club

Aprenda

O Gozo Dos Santos

Harpa Cristã

Cifra: Principal (violão e guitarra)
Tom: C
E|---------0-|-0-------5-7-|-8-7-8----|-10------0--10-|-12------10-8-|
B|---------8-|-8-------6-6-|-5-6-5----|-6-------13-0--|-8------------|
G|---------5-|-5-------5-0-|-0-0-0----|-0-------0--10-|---------9----|
D|-----------|-------------|----------|-9-------10----|-10-----------|
A|-----------|-------------|----------|------------10-|---------10---|
E|---------8-|-8-------8-8-|-8-8-8----|---------------|-8-------8----|

E|-8-------------|------------|-7---8-----|-8-------0-|-0-------5-7-|-8-7-8----|
B|---------12-10-|-8-------8--|-----------|-5-------8-|-8-------6-6-|-5-6-5----|
G|-10------10-10-|-9----9--9--|-7---9-----|-0-------5-|-5-------5-0-|-0-0-0----|
D|---------9--10-|-10---10-10-|-----------|-----------|-------------|----------|
A|-12------------|------10----|-10--10----|-----------|-------------|----------|
E|-13------13-13-|-8----8--8--|---------3-|-8-------8-|-8-------8-8-|-8-8-8----|

E|-10------0--10-|-12------10-8-|-8-------------|------------|-7---0-----|
B|-6-------13-0--|-8------------|---------12-10-|-8-------8--|-----13----|
G|-0-------0--10-|---------9----|-10------10-10-|-9----9--9--|-7---0-----|
D|-9-------10----|-10-----------|---------9--10-|-10---10-10-|-----------|
A|------------10-|---------10---|-12------------|------10----|-10--------|
E|---------------|-8-------8----|-13------13-13-|-8----8--8--|---------3-|

E|-0-------0-|-0------------|-------3----|-7-------5-7-|-8---------|
B|-13------8-|-8----------0-|----0--5----|-6---------6-|-8-8--8----|
G|-0-------0-|-0-------10---|-9--10-5----|-0-------5-0-|-9-10-9----|
D|-----------|---------12---|-10-12------|---------5---|---12-10---|
A|-----------|---------12---|-------3----|-------------|-----------|
E|-8-------8-|-8-------8----|-8--8-------|-3-------3-3-|-8-8--8----|

E|---------7--8-|-8---0----|-3---3---3-|-3--------|
B|-10------0--6-|-5-8-8----|-3---5---6-|-5--------|
G|-10------10---|-0-5-0----|-4---5---7-|-5--------|
D|-10---------7-|----------|-----------|----------|
A|-8-------8--8-|---7------|-----------|-3--------|
E|--------------|-8-8-8----|-3---3---3-|----------|
Colaboração e revisão:
  • Helon Oliveira
551 exibições
    • ½ Tom
    • A
    • Bb
    • B
    • C
    • Db
    • D
    • Eb
    • E
    • F
    • F#
    • G
    • Ab
  • Adicionar à lista

    0 comentários

    Mostrar mais comentários
    00:00 / 00:00
    outros vídeos desta música
    repetir qualidade Automático
    Outros vídeos desta música
    00:00 / 00:00
    Automático

    Cifra Club Pro

    Aproveite o Cifra Club com benefícios exclusivos e sem anúncios
    7 dias grátis
    Cifra Club Pro
    Aproveite o Cifra Club com benefícios exclusivos e sem anúncios
    7 dias grátis
    OK