Cifra Club

Oh! Pai, o Santo Espírito

Harpa Cristã

Cifra: Principal (violão e guitarra)
Selo Cifra Club: esta cifra foi revisada para atender aos critérios oficiais da nossa Equipe de Qualidade.
tom: Bm
E|---5--7-------5--------|----------------------|-5-7-8-------7---5-----|
B|-8----8-------7---8----|-7---7-------5---5----|-5---5---------------5-|
G|-0----7-------5---0----|-7---5-------5---5----|-------------7---5-----|
D|-9-10---------5---9----|-5---5-------5---5----|---6-7-------6---7-----|
A|------10---------------|----------------------|-7---------------------|
E|-----------------------|-7---8-------8---8----|-8-7-5-------7---8-----|

E|----------------------|-----7-------5--------|-7---12------7---10--8-|
B|-8---8-----------7----|---------3------------|-3-----------5---5-----|
G|-9---7----------------|-7---4-------5--------|-----9-----------------|
D|-8---9-----------7----|-10--5-------5--------|-5-----------6---7-----|
A|----------------------|-9--------------------|-----10------7---------|
E|-9---10---------------|-10--3-------3---3----|-3---8-----------5-----|

E|-5---------------7----|-5---3----------------|----------------------|
B|-5---8-------0---8----|-7---3----------------|----------------------|
G|-----7-------7---7----|-5---4----------------|----------------------|
D|-7---9-------0---0----|-----5----------------|----------------------|
A|-----5----------------|-5--------------------|----------------------|
E|-8--------------------|-----3----------------|----------------------|

Outros vídeos desta música
    807 exibições
      • ½ Tom
      • Am
      • Bbm
      • Bm
      • Cm
      • C#m
      • Dm
      • Ebm
      • Em
      • Fm
      • F#m
      • Gm
      • G#m
    • Adicionar à lista

    Afinação da cifra

    Afinador online

      0 comentários

      Ver todos os comentários

      Entre para o Cifra Club PRO

      Tenha acesso a benefícios exclusivos no App e no Site

      • Chega de anúncios

      • Badges exclusivas

      • Mais recursos no app do Afinador

      • Atendimento Prioritário

      • Aumente seu limite de lista

      • Ajude a produzir mais conteúdo

      Cifra Club Pro

      Aproveite o Cifra Club com benefícios exclusivos e sem anúncios
      Cifra Club Pro
      Aproveite o Cifra Club com benefícios exclusivos e sem anúncios
      Ops (: Contenido disponible sólo en portugués.
      OK