Cifra Club

Je Bent Alles

André Hazes

Cifra: Principal (violão e guitarra)
Selo Cifra Club: esta cifra foi revisada para atender aos critérios oficiais da nossa Equipe de Qualidade.
tom: G
{INTRO} 
           E                       A                    A 
e|--------|----------|-----------|---------|----------|--------|- 
B|--------|----------|-----------|---------|----------|-7---5--|- 
G|------2-|-4--------|-------6-8-|-6-------|-----7--6-|--------|- 
D|-2------|----------|-----------|---------|----------|--------|- 
A|--------|----------|-----------|---------|----------|--------|- 
E|--------|----------|-----------|---------|----------|--------|- 
                         E                         A         
e|---------------------|-----------|-------------|----------|--------|| 
B|---7--5--------------|-----------|-------------|----------|--------|| 
G|-6----------7-6--4-2-|-4-----7-6-|--------6--4-|-2--------|--------|| 
D|---------------------|-----------|-------------|----------|--------|| 
A|---------------------|-----------|-------------|----------|--------|| 
E|---------------------|-----------|-------------|----------|--------|| 
 
{VERSE 1} 
 A    E                   A 
Wat ging er mis, waarom laat je mij alleen, 
 D           A              E   
ik geef mijn fouten toch ook toe 
 A       E                A 
jij had gekozen voor dit leven met mij, 
  A        E      A      C D 
waarom is dat nu voorbij? 
 
{REFREIN} 
 G                       D 
jij bent alles,je bracht mij zoveel geluk, 
 G                           A     A7 
kom en zeg me hoe ging dit stuk? 
 D         G             D 
jij, jij alleen kan mij verstaan, 
             G              A   E7   
nee, ik kan jou niet laten gaan. 
 
{VERSE 2} 
als jij dit leven anders ziet, zeg het me dan, 
geef mij die kans nu het niet meer kan, 
zeg mij jou wensen dan ben ik jou fee, 
toe blijf nou hier, zeg nu geen neen 
 
{REFREIN} 
Jij bent alles m'n leven m'n geluk 
nee, nee maak dit nu niet stuk, nee! 
jij, maakt van regen zonneschijn 
toe, ik wil met jou weer samen zijn 
 
{GESPROKEN} 
 | F# | B | %  |  F#  | B  | %  | B  | %  | F# | %  | 
"Kom nou, ik wil enkel nog bij je zijn, weer gelukkig zijn, 
gewoon, dat je zegt dat je van me houd 
en geloof me niemand, niemand kan het winnen van jou, 
blijf bij mij ,ik hou van je" 
 
 Bm            F#    Bm            F# 
    Waar ik ook ben,    wat ik ook doe, 
 Bm            F#   Bm               F# 
    denk ik aan jou, ook al ben je er niet, 
   Em                             F#7 
    toch ben je ,toch ben je bij mij! 
 
{VERSE 3} 
 B         F#            B 
Jij moet geloven, ik kan jou niet laten gaan 
 E         B       F#  
wat heb ik jou aangedaan, 
 B         F# 
zeg dat je hier blijft, 
   B                     B       F#         B     ( D  E ) 
vertrouw nu op mij, dan komt het geluk voor allebei 
 
 A                 E 
Jij bent alles, m'n leven m'n geluk 
 A                         B   B7 
nee, nee maak dit nu niet stuk, nee! 
 E             A          E      
jij, maakt van regen zonneschijn 
               A               E 
toe, ik wil met jou weer samen zijn 
 E             A          E      
Jij, maakt van regen zonneschijn, 
               A               E 
toe ik wil met jou weer samen zijn 
 
 
Outros vídeos desta música
    859 exibições
      • ½ Tom
      • A
      • Bb
      • B
      • C
      • Db
      • D
      • Eb
      • E
      • F
      • F#
      • G
      • Ab
    • Adicionar à lista

    Afinação da cifra

    Afinador online

      0 comentários

      Ver todos os comentários

      Entre para o Cifra Club PRO

      Tenha acesso a benefícios exclusivos no App e no Site

      • Chega de anúncios

      • Badges exclusivas

      • Mais recursos no app do Afinador

      • Atendimento Prioritário

      • Aumente seu limite de lista

      • Ajude a produzir mais conteúdo

      Cifra Club Pro

      Aproveite o Cifra Club com benefícios exclusivos e sem anúncios
      Cifra Club Pro
      Aproveite o Cifra Club com benefícios exclusivos e sem anúncios
      Ops (: Contenido disponible sólo en portugués.
      OK