Cifra Club

Une Chanson Douce

Henri Salvador

Cifra: Principal (violão e guitarra)
Selo Cifra Club: esta cifra foi revisada para atender aos critérios oficiais da nossa Equipe de Qualidade.
tom: C
E|---------0-----------1-0-3-|---------0-------------1------|
B|-1-1-1-1---1-3-3-3-3-------|-1-1-1-1---1-3-3-3-3------0-1-|
G|---------------------------|------------------------------|
D|---------------------------|------------------------------|
A|---------------------------|------------------------------|
E|---------------------------|------------------------------|

and the arpeggio played along the song :

       C           G7           C          G7
E|--------0---|-------1---|-------0---|-------1-------------|
B|------1-----|-----0-----|-----1-----|-----0---------------|
G|----0-------|---0-------|---0-------|---0-----------------|
D|------------|-0---------|-2---------|-0-------------------|
A|-3----------|-----------|-----------|---------------------|
E|------------|-----------|-----------|---------------------|
00:00 / 00:00
Outros vídeos desta música
Repetir
Outros vídeos desta música
155 exibições
    • ½ Tom
    • A
    • Bb
    • B
    • C
    • Db
    • D
    • Eb
    • E
    • F
    • F#
    • G
    • Ab
  • Adicionar à lista

Afinação da cifra

Afinador online

    0 comentários

    Ver todos os comentários

    Entre para o Cifra Club PRO

    Tenha acesso a benefícios exclusivos no App e no Site

    • Chega de anúncios

    • Mais recursos no app do Afinador

    • Atendimento Prioritário

    • Aumente seu limite de lista

    • Ajude a produzir mais conteúdo

    00:00 / 00:00

    Cifra Club Pro

    Aproveite o Cifra Club com benefícios exclusivos e sem anúncios
    Cifra Club Pro
    Aproveite o Cifra Club com benefícios exclusivos e sem anúncios
    OK