Cifra Club

Hino do Rio Grande do Sul

Hinos

Cifra: Versão 2 (violão e guitarra)
Selo Cifra Club: esta cifra foi revisada para atender aos critérios oficiais da nossa Equipe de Qualidade.
tom: D
E|------------------10-9-7------------------------------------------|
B|-----------7-8-10---------10-7---10-10-8---7-----10---------------|
G|------------------------------7----------9---7-9------------------|
D|------------------------------------------------------------------|
A|------------------------------------------------------------------|
E|------------------------------------------------------------------|
         Como a aurora precursora, do farol da divindade

E|---------------------10-9-7-9/10-10-9-7-9~--9-7-------------------|
B|-------------7-8-10------------------------------10-7-------------|
G|------------------------------------------------------------------|
D|------------------------------------------------------------------|
A|------------------------------------------------------------------|
E|------------------------------------------------------------------|
        Foi o Vinte de Setembro o precursor da Liberdade

E|------------------------------------------------------------------|
B|--------10-9-10-10---10-7----------10-9-10-10---10-7--------------|
G|-------------------9------7-------------------9------7------------|
D|------------------------------------------------------------------|
A|------------------------------------------------------------------|
E|------------------------------------------------------------------|
       Mostremos valor constância, nesta ímpia e injusta guerra

E|-----------------------15-12-12-----------12-14-------15-12-12----|
B|--15-15-------13-13-12-----------15-14-15-------15-12----------15-|
G|--------13-14-----------------------------------------------------|
D|------------------------------------------------------------------|
A|------------------------------------------------------------------|
E|------------------------------------------------------------------|
      Sirvam nossas façanhas, de modelo a toda a terra, de modelo

E|------------------10-9-7------------------------------------------|
B|-----------7-8-10---------10-7---10-10-8---7-----10---------------|
G|------------------------------7----------9---7-9------------------|
D|------------------------------------------------------------------|
A|------------------------------------------------------------------|
E|------------------------------------------------------------------|
      Mas não basta pra ser livre, ser forte, aguerrido e bravo

E|---------------------10-9-7-9/10-10-9-7-9/10-10-10-9-7------------|
B|-------------7-8-10------------------------------------10-7-------|
G|------------------------------------------------------------------|
D|------------------------------------------------------------------|
A|------------------------------------------------------------------|
E|------------------------------------------------------------------|
      Povo que não tem virtude, acaba por ser escravo

E|------------------------------------------------------------------|
B|--------10-10-9-10---10-7---------10-10-9-10---10-7---------------|
G|-------------------9------7------------------9------7-------------|
D|------------------------------------------------------------------|
A|------------------------------------------------------------------|
E|------------------------------------------------------------------|
       Mostremos valor constância, nesta ímpia e injusta guerra

E|-----------------------15-12-12-----------12-14-------------------|
B|--15-15-------13-13-12-----------15-14-15-------15-12-------------|
G|--------13-14-----------------------------------------------------|
D|------------------------------------------------------------------|
A|------------------------------------------------------------------|
E|------------------------------------------------------------------|
         Sirvam nossas façanhas, de modelo a toda a terra

E|-----15-12-12----------12-14-14-----------------12-14-14----------|
B|--------------15-14-15-----------12-14-15-14-15-------------------|
G|------------------------------------------------------------------|
D|------------------------------------------------------------------|
A|------------------------------------------------------------------|
E|------------------------------------------------------------------|
          De modelo a toda terra, sirvam nossas façanhas

E|--------------------12-14-14--------------------------------------|
B|-----12-14-15-14-15-----------------------------------------------|
G|------------------------------------------------------------------|
D|------------------------------------------------------------------|
A|------------------------------------------------------------------|
E|------------------------------------------------------------------|
                        De modelo a toda terra
Outros vídeos desta música
    27.192 exibições
      • ½ Tom
      • A
      • Bb
      • B
      • C
      • Db
      • D
      • Eb
      • E
      • F
      • F#
      • G
      • Ab
    • Adicionar à lista

    Afinação da cifra

    Afinador online

      0 comentários

      Ver todos os comentários

      Conseguiu tocar?

      4Tocaram1Ainda não

      Grave um vídeo tocando Hino do Rio Grande do Sul e nos envie!

      Toque também

      1. Imagem do artista Hinos de EstadosHino do Rio Grande do Sul Hinos de Estados
      2. Imagem do artista Hinos de PaísesHino do Brasil Hinos de Países
      3. Imagem do artista Marchinhas de CarnavalMamãe Eu Quero Marchinhas de Carnaval
      4. Imagem do artista Exército BrasileiroCanção do Exército Exército Brasileiro

      Entre para o Cifra Club PRO

      Tenha acesso a benefícios exclusivos no App e no Site

      • Chega de anúncios

      • Badges exclusivas

      • Mais recursos no app do Afinador

      • Atendimento Prioritário

      • Aumente seu limite de lista

      • Ajude a produzir mais conteúdo

      Cifra Club Pro

      Aproveite o Cifra Club com benefícios exclusivos e sem anúncios
      Cifra Club Pro
      Aproveite o Cifra Club com benefícios exclusivos e sem anúncios
      Ops (: Contenido disponible sólo en portugués.
      OK