Enviar cifraEntrar

Hino do Rio Grande do Sul

Hinos

Cifra: Principal
exibições 111.486
Tom: G

E|---------10~~--9-7-----------------------------------------
B|--7-8-10------------10----10-7-8----7------10~~-------------
G|-----------------------9---------9----7-9------------------
D|-----------------------------------------------------------
A|-----------------------------------------------------------
E|-----------------------------------------------------------


E|---------10-9-7-9/10-10--10-9-7-9-9---------------------------
B|--7-8-10-----------------------------10-9-7~-------------------
G|---------------------------------------------11-9-------------
D|-----------------------------------------------------------
A|-----------------------------------------------------------
E|-----------------------------------------------------------


E|-----------------------------------------------------------
B|--10-9-10-10---10-7-----10-9-10-10---10-7------------------
G|-------------9------7~-------------9------7~---------------
D|-----------------------------------------------------------
A|-----------------------------------------------------------
E|-----------------------------------------------------------


E|------------------------15-12-12----------12-14------------
B|--15-15-------13-13-12-----------15-14-15-------15-12------
G|--------13-14----------------------------------------------
D|-----------------------------------------------------------
A|-----------------------------------------------------------
E|-----------------------------------------------------------


E|-15-12-12-------------------------|-------------------------
B|-------------15---12-14-14-15-15--|-------12----12--14-15-15
G|----------------------------------|-14-14----14-------------   (x2)
D|----------------------------------|-------------------------
A|----------------------------------|-------------------------
E|----------------------------------|-------------------------


Como aurora precursora
Do farol da divindade
Foi o vinte de setembro
o precursor da liberdade

(refrão)
Mostremos valor constância
Nesta ímpia e injusta guerra
Sirvam nossas façanhas
De modelo a toda terra de modelo
A toda terra sirvam nossas façanhas de modelo a toda terra

Mas não basta para ser livre
Ser forte aguerrido e bravo
Povo que não tem virtude
Acaba por ser escravo
  • 1
  • 2
  • 3
  • 4
  • 5
  • 6
  • 7
  • 8
  • 9
  • 10
  • 11
  • 12
    Acordes para:
      Colaboração e revisão:
      • Gabriel
      • Dodo
      • bruno_maciel

      0 comentários

        mostrar mais comentários

        Conseguiu tocar?

        16tocaram0ainda não

        Grave um vídeo tocando Hino do Rio Grande do Sul e mande pra gente!

        00:00 / 00:00
        outros vídeos desta música
        repetirqualidadeautomática
        • automática
        Outro vídeos desta música
          00:00 / 00:00
          automática
          • automática
          Acordes para:violão e guitarra
          dificuldadeexibiçõescontribuições
          fecharplay/pause subir/descer velocidade
            acordes
            fechar
            OK
            Feedback