Cifra Club

Why Wont You Leave Me

Home Grown

Cifra: Principal (violão e guitarra)
Selo Cifra Club: esta cifra foi revisada para atender aos critérios oficiais da nossa Equipe de Qualidade.
tom: Cm
Intro

E|----------------------------------------------------------|
B|----------------------------------------------------------|
G|----------------------------------------------------------|
D|--10-10-10--8-8-8--6-6-6-6-6-6-6-6----8-8-8-8-6-8---------|
A|--10-10-10--8-8-8--6-6-6-6-6-6-6-6----8-8-8-8-6-8---------|
E|--8--8--8---6-6-6--4-4-4-3-4-4-4-4-3--6-6-6-6-4-6---------|

E|----------------------------------------------------------| x2
B|----------------------------------------------------------|
G|----------------------------------------------------------|
D|--10-10-10--8-8-8--6-6-6-6-6-6-6-6----8-8-8-8-------------|
A|--10-10-10--8-8-8--6-6-6-6-6-6-6-6----8-8-8-8-------------|
E|--8--8--8---6-6-6--4-4-4-3-4-4-4-4-3--6-6-6-6-------------|

Guitar 1

E|----------------------------------------------------------|
B|----------------------------------------------------------|
G|-12-10-8-7-8-7-----12-10-8-7-8-10-------------------------|
D|----------------------------------------------------------|
A|----------------------------------------------------------|
E|----------------------------------------------------------|

Guitar 2

E|----------------------------------------------------------|
B|----------------------------------------------------------|
G|----------------------------------------------------------|
D|--10-10-10--8-8-8--6-6-6-6-6-6-6-6----8-8-8-8-6-8---------|
A|--10-10-10--8-8-8--6-6-6-6-6-6-6-6----8-8-8-8-6-8---------|
E|--8--8--8---6-6-6--4-4-4-3-4-4-4-4-3--6-6-6-6-4-6---------|

E|----------------------------------------------------------|
B|----------------------------------------------------------|
G|----------------------------------------------------------|
D|--10-10-10--8-8-8--6-6-6-6-6-6-6-6----8-8-8-8-5-----------|
A|--10-10-10--8-8-8--6-6-6-6-6-6-6-6----8-8-8-8-5-----------|
E|--8--8--8---6-6-6--4-4-4-3-4-4-4-4-3--6-6-6-6-3-----------|

Verse

E|----------------------------------------------------------|  x2
B|----------------------------------------------------------|
G|----------------------------------------------------------|
D|-55555555555555555-6666666-8888888------------------------|
A|-55555555555555555-6666666-8888888------------------------|
E|-33333333333333333-4444444-6666666------------------------|


E|----------------------------------------------------------|
B|----------------------------------------------------------|
G|12-12-13-13-12-12-10-10---12-12-13-13-10-10-8-8-----------|
D|----------------------------------------------------------|
A|----------------------------------------------------------|
E|----------------------------------------------------------|
                                       
E|----------------------------------------------------------|
B|----------------------------------------------------------|
G|-12-12-13-13-12-12-10-10----------------------------------|
D|---------------------------888888888----------------------|
A|---------------------------888888888----------------------|
E|---------------------------666666666----------------------|

Chorus

E|----------------------------------------------------------| x4
B|----------------------------------------------------------|
G|-----------------------5555-3333--------------------------|
D|-55xxxx-88xxxx-66xxxxx-5555-3333--------------------------|
A|-55xxxx-88xxxx-66xxxxx-3333-1111--------------------------|
E|-33xxxx-66xxxx-44xxxxx------------------------------------|

Bridge

E|----------------------------------------------------------|
B|----------------------------------------------------------|
G|----------------------------------------------------------|
D|----------------------------------------------------------|
A|-10101010101010101010101010101010--888888888888888--------|
E|-8-8-8-8-8-8-8-8-8-8-8-8-8-8-8-8---666666666666666--------|

E|----------------------------------------------------------| x2
B|----------------------------------------------------------|
G|----------------------------------------------------------|
D|----------------------------------------------------------|
A|6666666666666666--5555555-88888888------------------------|
E|4444444444444444--3333333-66666666------------------------|

Outro


E|----------------------------------------------------------| x2
B|----------------------------------------------------------|
G|12-10-8-7-8-7-5---12-10-8-7-8-7--15-13-12-13-12-13--------|
D|----------------------------------------------------------|
A|----------------------------------------------------------|
E|----------------------------------------------------------|
Outros vídeos desta música
    0 exibições
      • ½ Tom
      • Am
      • Bbm
      • Bm
      • Cm
      • C#m
      • Dm
      • Ebm
      • Em
      • Fm
      • F#m
      • Gm
      • G#m
    • Adicionar à lista

    Afinação da cifra

    Afinador online

      0 comentários

      Ver todos os comentários

      Entre para o Cifra Club PRO

      Tenha acesso a benefícios exclusivos no App e no Site

      • Chega de anúncios

      • Badges exclusivas

      • Mais recursos no app do Afinador

      • Atendimento Prioritário

      • Aumente seu limite de lista

      • Ajude a produzir mais conteúdo

      Cifra Club Pro

      Aproveite o Cifra Club com benefícios exclusivos e sem anúncios
      Cifra Club Pro
      Aproveite o Cifra Club com benefícios exclusivos e sem anúncios
      OK