Cifra Club

Never Fight A Man With A Perm

Idles

Cifra: Principal (violão e guitarra)
Selo Cifra Club: esta cifra foi revisada para atender aos critérios oficiais da nossa Equipe de Qualidade.
tom: Em
E|--------------------------|
B|--------------------------|
G|-4-4-4b5-4b5--------------| D PEAT UNTIL CHORUS
D|-------------2------------|
A|--------------------------|
E|--------------------------|
The rhythm in the background plays a harmonic on the A string where the 'X' is, 
this comes in (in the background) after the first riff plays about 16 times. You
can hear it if you listen closely.

 'A dulcet man with a dolcet tone'
E|------------------------------|
B|------------------------------|
G|-----------14------------14---|
D|-----------14------------14---| D PEAT UNTIL CHORUS
A|-----------12------------12---|
E|-x--x-x-x------x--x-x-x-------|


[Chorus] Sounds good if you bend the D chord
'Concrete and leather'
E|---------------------------------------------------------------------------|
B|---------------------------------------------------------------------------|
G|------x-7-7-7-7-7-------x-7-7-7-7-7-------x-7-7-7-7-7-------x-7-7-7-5-5-5--|
D|-2-2--x-7-7-7-7-7--2-2--x-7-7-7-7-7--5-5--x-7-7-7-7-7--5-5--x-7-7-7-5-5-5--|
A|-2-2--x-5-5-5-5-5--2-2--x-5-5-5-5-5--5-5--x-5-5-5-5-5--5-5--x-5-5-5-3-3-3--|
E|-0-0---------------0-0---------------3-3---------------3-3-----------------|


[Bridge] Basically just strum the chords along to the song to get the timings
E|----------------------------------------------------------|
B|----------------------------------------------------------|
G|-16-16-16-16-16-16-16-16-16-16-16-16-16-16-16/18-18-18----|
D|-17-17-17-17-17-17-17-17-17-17-17-17-17-17-17/19-19-19----| 2x
A|-17-17-17-17-17-17-17-17-17-17-17-17-17-17-17/19-19-19----|
E|-15-15-15-15-15-15-15-15-15-15-15-15-15-15-15/17-17-17----|


[Verse]
Verse repeats the riff
E|-------------------------|
B|-------------------------|
G|-4-4-4b5-4b5-------------| D PEAT UNTIL CHORUS
D|-------------2-----------|
A|-------------------------|
E|-------------------------|

This part still runs in the background also
 "He thinks he's suave"
E|----------------------------------|
B|----------------------------------|
G|-----------14------------14-------|
D|-----------14------------14-------| D PEAT UNTIL CHORUS
A|-----------12------------12-------|
E|-x--x-x-x------x--x-x-x-----------|


[Chorus]
'Concrete and leather'
E|---------------------------------------------------------------------------|
B|---------------------------------------------------------------------------|
G|------x-7-7-7-7-7-------x-7-7-7-7-7-------x-7-7-7-7-7-------x-7-7-7-5-5-5--|
D|-2-2--x-7-7-7-7-7--2-2--x-7-7-7-7-7--5-5--x-7-7-7-7-7--5-5--x-7-7-7-5-5-5--|
A|-2-2--x-5-5-5-5-5--2-2--x-5-5-5-5-5--5-5--x-5-5-5-5-5--5-5--x-5-5-5-3-3-3--|
E|-0-0---------------0-0---------------3-3---------------3-3-----------------|

E|---------------------------------------------------------------------------|
B|---------------------------------------------------------------------------|
G|------x-7-7-7-7-7-------x-7-7-7-7-7-------x-7-7-7-7-7-------x-7-7-7-5-5-5--|
D|-2-2--x-7-7-7-7-7--2-2--x-7-7-7-7-7--5-5--x-7-7-7-7-7--5-5--x-7-7-7-5-5-5--|
A|-2-2--x-5-5-5-5-5--2-2--x-5-5-5-5-5--5-5--x-5-5-5-5-5--5-5--x-5-5-5-3-3-3--|
E|-0-0---------------0-0---------------3-3---------------3-3-----------------|

 'I shut my mouth'
E|---------------------------------------------------------------------------|
B|---------------------------------------------------------------------------|
G|-4-4-4-4-4-4-4---------7-7-7-5-5-5--4-4-4-4-4-4-4---------7-7-7-5-5-5------|
D|-4-4-4-4-4-4-4-5-5-5-5-7-7-7-5-5-5--4-4-4-4-4-4-4-5-5-5-5-7-7-7-5-5-5------|
A|-2-2-2-2-2-2-2-5-5-5-5-5-5-5-3-3-3--2-2-2-2-2-2-2-5-5-5-5-5-5-5-3-3-3------|
E|---------------3-3-3-3----------------------------3-3-3-3------------------|

E|---------------------------------------------------------------------------|
B|---------------------------------------------------------------------------|
G|-4-4-4b-4b---4-4-4b-4b-----------------------------------------------------|
D|-4-4-4b-4b-2-4-4-4b-4b-2---------------------------------------------------|
A|-2-2-2b-2b---2-2-2b-2b-----------------------------------------------------|
E|---------------------------------------------------------------------------|


************************************

| x   Dead note
| b   Bend
| /   Slide up
Outros vídeos desta música
    295 exibições
      • ½ Tom
      • Am
      • Bbm
      • Bm
      • Cm
      • C#m
      • Dm
      • Ebm
      • Em
      • Fm
      • F#m
      • Gm
      • G#m
    • Adicionar à lista

    Afinação da cifra

    Afinador online

      0 comentários

      Ver todos os comentários

      Conseguiu tocar?

      0Tocaram0Ainda não

      Grave um vídeo tocando Never Fight A Man With A Perm e nos envie!

      Entre para o Cifra Club PRO

      Tenha acesso a benefícios exclusivos no App e no Site

      • Chega de anúncios

      • Badges exclusivas

      • Mais recursos no app do Afinador

      • Atendimento Prioritário

      • Aumente seu limite de lista

      • Ajude a produzir mais conteúdo

      Cifra Club Pro

      Aproveite o Cifra Club com benefícios exclusivos e sem anúncios
      Cifra Club Pro
      Aproveite o Cifra Club com benefícios exclusivos e sem anúncios
      Ops (: Contenido disponible sólo en portugués.
      OK