Cifra Club

Jai Demandé À La Lune

Indochine

Cifra: Principal (violão e guitarra)
Selo Cifra Club: esta cifra foi revisada para atender aos critérios oficiais da nossa Equipe de Qualidade.
tom: F#m
E|------------------------------------------------------------| II
B|------------------------------------------------------------| o-II
G|------------------------------------------------------------| II
D|--7-----7-----9-----9-----4-----4-----4-----4---------------| II
A|-----7-----7-----7-----7----4-----4-----4-----4-/-----------| o-II
E|------------------------------------------------------------| II


[Couplets]

    A           E           F#m            (x2)

E|------------------------------------------------------------| II
B|------------------------------------------------------------| o-II
G|------------------------------------------------------------| II
D|--7-----7-----9-----9-----4-----4-----4-----4---------------| II
A|-----7-----7-----7-----7----4-----4-----4-----4-/-----------| o-II
E|------------------------------------------------------------| II


    Bm          F#m         C#m           E

E|------------------------------------------------------------| II
B|------------------------------------------------------------| II
G|------------------------------------------------------------| II
D|--9-----9-----4-----4-----11----11------9-----9-------------| II
A|-----9-----9-----4-----4-----11----11-----7-----7-----------| II
E|------------------------------------------------------------| II


A      E        F#m
J'ai demandé à la lune
A      E             F#m
et le soleil ne le sait pas
Bm                    F#m
je lui ai montré mes brûlures
C#m                     E
et la lune s'est moquée de moi
           A     E             F#m
et comme le ciel n'avait pas fière allure
A         E          F#m
et que je ne guérissais pas
Bm                      F#m
je me suis dit quelle infortune
C#m                     E
et la lune s'est moquée de moi


A      E        F#m
J'ai demandé à la lune
A      E             F#m
si tu voulais encore de moi
Bm                    F#m
elle m'a dit : « j'ai pas l'habitude
C#m                     E
de m'occuper de cas comme ça »
           A     E             F#m
et toi et moi on était tellement sûr
A         E          F#m
et on se disait quelques fois
Bm                      F#m
que c'était juste une aventure
C#m                     E
et que ça ne durerait pas


[Interlude]

   Dm        Am  (x2) C       G       C       G

E|-1-------0--------|-0-------------------------------3-------|
B|-----3-------1----|-----1---3-------1-------3-----3---------|
G|---2-------2------|---0---------4-------0-------4-----------|
D|------------------|-----------5-------2-------5-------------|
A|------------------|-----------------------------------------|
E|------------------|-----------------------------------------|

Dm                       Am
Je n'ai pas grand chose à te dire
Dm                           Am
et pas grand chose pour te faire rire
C                      G
car j'imagine toujours le pire
C                     G
et le meilleur me fait souffrir


Couplet sans chanter


A      E        F#m
J'ai demandé à la lune
A      E             F#m
si tu voulais encore de moi
Bm                    F#m
elle m'a dit : « j'ai pas l'habitude
C#m                     E
de m'occuper de cas comme ça »
           A     E             F#m
et toi et moi on était tellement sûr
A         E          F#m
et on se disait quelques fois
Bm                      F#m
que c'était juste une aventure
C#m                     E
et que ça ne durerait pas
00:00 / 00:00
Outros vídeos desta música
Repetir
Outros vídeos desta música
53 exibições
    • ½ Tom
    • Am
    • Bbm
    • Bm
    • Cm
    • C#m
    • Dm
    • Ebm
    • Em
    • Fm
    • F#m
    • Gm
    • G#m
  • Adicionar à lista

Afinação da cifra

Afinador online

    0 comentários

    Ver todos os comentários

    Entre para o Cifra Club PRO

    Tenha acesso a benefícios exclusivos no App e no Site

    • Chega de anúncios

    • Mais recursos no app do Afinador

    • Atendimento Prioritário

    • Aumente seu limite de lista

    • Ajude a produzir mais conteúdo

    00:00 / 00:00

    Cifra Club Pro

    Aproveite o Cifra Club com benefícios exclusivos e sem anúncios
    Cifra Club Pro
    Aproveite o Cifra Club com benefícios exclusivos e sem anúncios
    OK