Cifra Club

Asturias

Isaac Albeniz

Cifra: Principal (violão e guitarra)
Selo Cifra Club: esta cifra foi revisada para atender aos critérios oficiais da nossa Equipe de Qualidade.
tom: Em
[Primeira Parte]

E|------------------------------------------|
B|---0---0----0---0---0----0----------------|
G|------------------------------------------|
D|-----9---10---7---9-----------------------|
A|-7--------------------10------------------|
E|------------------------------------------|

E|------------------------------------------|
B|---0---0----0---0---0----0----------------|
G|------------------------------------------|
D|-----9---10---7---9-----------------------|
A|-7--------------------10------------------|
E|------------------------------------------|

E|------------------------------------------|
B|---0---0----0---0---0----0----------------|
G|------------------------------------------|
D|-----9---10---7---9-----------------------|
A|-7--------------------10------------------|
E|------------------------------------------|

E|------------------------------------------|
B|---0---0----0---0---0----0----------------|
G|------------------------------------------|
D|-7------------7---------------------------|
A|-----9---10-------9---10------------------|
E|------------------------------------------|

E|------------------------------------------|
B|---0---0----0---0---0----0----------------|
G|------------------------------------------|
D|-----9---10---7---9-----------------------|
A|-7--------------------10------------------|
E|------------------------------------------|

E|------------------------------------------|
B|---0---0----0---0---0----0----------------|
G|------------------------------------------|
D|-----9---10---7---9-----------------------|
A|-7--------------------10------------------|
E|------------------------------------------|

E|------------------------------------------|
B|---0---0----0---0---0----0----------------|
G|------------------------------------------|
D|-----9---10---7---9-----------------------|
A|-7--------------------10------------------|
E|------------------------------------------|

E|------------------------------------------|
B|---0---0----0---0----0---0----------------|
G|------------------------------------------|
D|-7----------------------------------------|
A|-----9---10---7---------------------------|
E|------------------10---8------------------|

[Segunda Parte]

E|------------------------------------------|
B|---0---0----0---0---0---0-----------------|
G|------------------------------------------|
D|-----9---10---7---9-----------------------|
A|----------------------9-------------------|
E|-7----------------------------------------|

E|------------------------------------------|
B|---0---0----0---0---0---0-----------------|
G|------------------------------------------|
D|-----9---10---7---9-----------------------|
A|----------------------9-------------------|
E|-7----------------------------------------|

E|------------------------------------------|
B|---0---0---0---0----0----0----------------|
G|------------------------------------------|
D|---------7---9---10---12------------------|
A|-----9------------------------------------|
E|-7----------------------------------------|

E|------------------------------------------|
B|---0----0---0---0----0---0----------------|
G|------------------------------------------|
D|-9---10---7---9---------------------------|
A|------------------10---9------------------|
E|------------------------------------------|

E|------------------------------------------|
B|---0---0----0---0---0---0-----------------|
G|------------------------------------------|
D|-----9---10---7---9-----------------------|
A|----------------------9-------------------|
E|-7----------------------------------------|

E|------------------------------------------|
B|---0---0----0---0---0---0-----------------|
G|------------------------------------------|
D|-----9---10---7---9-----------------------|
A|----------------------9-------------------|
E|-7----------------------------------------|

E|------------------------------------------|
B|---0---0---0----0----0---0----------------|
G|------------------------------------------|
D|-----7---9---10---12---9------------------|
A|------------------------------------------|
E|-7----------------------------------------|

E|------------------------------------------|
B|----0---0---0---0---0---0-----------------|
G|------------------------------------------|
D|-10---7---9---5---7---4-------------------|
A|------------------------------------------|
E|------------------------------------------|

[Primeira Parte]

E|-----7-----7------7-----7-----7------7----|
B|---0-----0------0-----0-----0------0------|
G|------------------------------------------|
D|-------9-----10-----7-----9---------------|
A|-7------------------------------10--------|
E|-0----------------------------------------|

E|-----7-----7------7-----7-----7------7----|
B|---0-----0------0-----0-----0------0------|
G|------------------------------------------|
D|-------9-----10-----7-----9---------------|
A|-7------------------------------10--------|
E|-0----------------------------------------|

E|-----7-----7------7-----7-----7------7----|
B|---0-----0------0-----0-----0------0------|
G|------------------------------------------|
D|-------9-----10-----7-----9---------------|
A|-7------------------------------10--------|
E|-0----------------------------------------|

E|-----7-----7------7-----7-----7------7----|
B|---0-----0------0-----0-----0------0------|
G|------------------------------------------|
D|-7------------------7---------------------|
A|-------9-----10-----------9-----10--------|
E|------------------------------------------|

E|-----7-----7------7-----7-----7------7----|
B|---0-----0------0-----0-----0------0------|
G|------------------------------------------|
D|-------9-----10-----7-----9---------------|
A|-7------------------------------10--------|
E|-0----------------------------------------|

E|-----7-----7------7-----7-----7------7----|
B|---0-----0------0-----0-----0------0------|
G|------------------------------------------|
D|-------9-----10-----7-----9---------------|
A|-7------------------------------10--------|
E|-0----------------------------------------|

E|-----7-----7------7-----7-----7------7----|
B|---0-----0------0-----0-----0------0------|
G|------------------------------------------|
D|-------9-----10-----7-----9---------------|
A|-7------------------------------10--------|
E|-0----------------------------------------|

E|-----7-----7------7-----7------7-----7----|
B|---0-----0------0-----0------0-----0------|
G|------------------------------------------|
D|-7----------------------------------------|
A|-------9-----10-----7---------------------|
E|--------------------------10-----8--------|

[Segunda Parte]

E|-7----------------------------------------|
B|-7----0-0----0-0---0-0---0-0---0-0--------|
G|-8----------------------------------------|
D|-9--9-----10-----7-----9------------------|
A|-9---------------------------9------------|
E|-7----------------------------------------|

E|-7----------------------------------------|
B|-7----0-0----0-0---0-0---0-0---0-0--------|
G|-8----------------------------------------|
D|-9--9-----10-----7-----9------------------|
A|-9---------------------------9------------|
E|-7----------------------------------------|

E|-7----------------------------------------|
B|-7----0-0---0-0---0-0----0-0----0-0-------|
G|-8----------------------------------------|
D|-9--------7-----9-----10-----12-----------|
A|-9--9-------------------------------------|
E|-7----------------------------------------|

E|------------------------------------------|
B|---0-0----0-0---0-0---0-0----0-0---0-0----|
G|------------------------------------------|
D|-9-----10-----7-----9---------------------|
A|--------------------------10-----9--------|
E|------------------------------------------|

E|-7----------------------------------------|
B|-7----0-0----0-0---0-0---0-0---0-0--------|
G|-8----------------------------------------|
D|-9--9-----10-----7-----9------------------|
A|-9---------------------------9------------|
E|-7----------------------------------------|

E|-7----------------------------------------|
B|-7----0-0----0-0---0-0---0-0---0-0--------|
G|-8----------------------------------------|
D|-9--9-----10-----7-----9------------------|
A|-9---------------------------9------------|
E|-7----------------------------------------|

E|-7----------------------------------------|
B|-7---0-0---0-0---0-0----0-0----0-0---0-0--|
G|-8----------------------------------------|
D|-9-9-----7-----9-----10-----12-----9------|
A|-9----------------------------------------|
E|-7----------------------------------------|

E|------------------------------------------|
B|----0-0---0-0---0-0---0-0---0-0-----------|
G|------------------------------------------|
D|-10-----7-----9-----5-----9---------------|
A|------------------------------------------|
E|------------------------------------------|

[Terceira Parte]

E|-12---------------------------------------|
B|-0----0-0----0-0----0-0---0-0----0-0------|
G|-0----------------------------------------|
D|-9--9-----10------------9-----------------|
A|-10--------------12-----------10----------|
E|-0----------------------------------------|

E|-12---------------------------------------|
B|-0----0-0----0-0----0-0---0-0----0-0------|
G|-0----------------------------------------|
D|-9--9-----10------------9-----------------|
A|-10--------------12-----------10----------|
E|-0----------------------------------------|

E|-12---------------------------------------|
B|-0----0-0----0-0----0-0---0-0----0-0------|
G|-0----------------------------------------|
D|-9--9-----10------------9-----------------|
A|-10--------------12-----------10----------|
E|-0----------------------------------------|

E|------------------------------------------|
B|----0-0---0-0----0-0----0-0---0-0----0-0--|
G|------------------------------------------|
D|------------------------------------------|
A|-12-----9-----10-----12-----9-----10------|
E|------------------------------------------|

E|-12-------8-------8------8-------8------8-|
B|-8----------------------------------------|
G|-9------9-------9------9-------9------9---|
D|-8---10------12------9------10------------|
A|-10--------------------------------10-----|
E|-8----------------------------------------|

E|-12-------8-------8------8-------8------8-|
B|-8----------------------------------------|
G|-9------9-------9------9-------9------9---|
D|-8---10------12------9------10------------|
A|-10--------------------------------10-----|
E|-8----------------------------------------|

E|-12-------8-------8------8-------8------8-|
B|-8----------------------------------------|
G|-9------9-------9------9-------9------9---|
D|-8---10------12------9------10------------|
A|-10--------------------------------10-----|
E|-8----------------------------------------|

E|-----8-----8------8-----8-----8-----8-----|
B|---7-----7------7-----7-----7-----7-------|
G|------------------------------------------|
D|-7------------------7---------------------|
A|-------9-----10-----------7-----9---------|
E|------------------------------------------|

[Quarta Parte]

E|-7------7------7-----7-----7-----7--------|
B|-7----7------7-----7-----7-----7----------|
G|-8----------------------------------------|
D|-9--9-----10-----8-----9------------------|
A|-9---------------------------9------------|
E|-7----------------------------------------|

E|-8--------8------8-----8------8------8----|
B|-8----------------------------------------|
G|-9------9------9-----9------9------9------|
D|-8---10-----12-----9-----10---------------|
A|-10-----------------------------10--------|
E|-8----------------------------------------|

E|-7------7------7-----7-----7-----7--------|
B|-7----7------7-----7-----7-----7----------|
G|-8----------------------------------------|
D|-9--9-----10-----8-----9------------------|
A|-9---------------------------9------------|
E|-7----------------------------------------|

E|-8--------8------8-----8------8------8----|
B|-8----------------------------------------|
G|-9------9------9-----9------9------9------|
D|-8---10-----12-----9-----10---------------|
A|-10-----------------------------10--------|
E|-8----------------------------------------|

E|-7------7------7-----7-----7-----7--------|
B|-7----7------7-----7-----7-----7----------|
G|-8----------------------------------------|
D|-9--9-----10-----8-----9------------------|
A|-9---------------------------9------------|
E|-7----------------------------------------|

E|-----7-----7------7-----7-----7------7----|
B|---0-----0------0-----0-----0------0------|
G|------------------------------------------|
D|-7------------------7---------------------|
A|-------9-----10-----------9-----10--------|
E|------------------------------------------|

E|-----7-----7------7-----7-----7------7----|
B|---7-----7------7-----7-----7------7------|
G|------------------------------------------|
D|--------------------7---------------------|
A|-7-----9-----10-----------9-----10--------|
E|------------------------------------------|

E|-----7-----7------7-----7------7-----7----|
B|---7-----7------7-----7------7-----7------|
G|------------------------------------------|
D|------------------------------------------|
A|-7-----9-----10-----7---------------------|
E|--------------------------10-----8--------|

E|------------------------------------------|
B|---0---0----0---0---0----0----------------|
G|------------------------------------------|
D|-----9---10---7---9-----------------------|
A|----------------------10------------------|
E|-7----------------------------------------|

E|------------------------------------------|
B|---0---0----0---0---0----0----------------|
G|------------------------------------------|
D|-7------------7---------------------------|
A|-----9---10-------9---10------------------|
E|------------------------------------------|

E|------------------------------------------|
B|---0---0----0---0---0----0----------------|
G|------------------------------------------|
D|--------------7---------------------------|
A|-7---9---10-------9---10------------------|
E|------------------------------------------|

E|------------------------------------------|
B|---0---0----0---0----0---0----------------|
G|------------------------------------------|
D|------------------------------------------|
A|-7---9---10---7---------------------------|
E|------------------10---8------------------|

[Quinta Parte]

E|------------------------------------------|
B|-----7-----7-----7------7-----7-----7-----|
G|---8-----8-----8------8-----8-----8-------|
D|-------------9-----10-----8-----9---------|
A|-------9----------------------------------|
E|-7----------------------------------------|

E|-----0-----0------0-----0-----0------0----|
B|---8-----8------8-----8-----8------8------|
G|-------0------------7---------------------|
D|--------------------------9---------------|
A|-------------10-----------------10--------|
E|-7----------------------------------------|

E|------------------------------------------|
B|-----7-----7-----7------7-----7-----7-----|
G|---8-----8-----8------8-----8-----8-------|
D|-------------9-----10-----8-----9---------|
A|-------9----------------------------------|
E|-7----------------------------------------|

E|-----0-----0------0-----0-----0------0----|
B|---8-----8------8-----8-----8------8------|
G|-------0------------7---------------------|
D|--------------------------9---------------|
A|-------------10-----------------10--------|
E|-7----------------------------------------|

E|------------------------------------------|
B|-----7-----7-----7------7-----7-----7-----|
G|---8-----8-----8------8-----8-----8-------|
D|-------------9-----10-----8-----9---------|
A|-------9----------------------------------|
E|-7----------------------------------------|

E|------------------------------------------|
B|-----7------7-----7------7-----7-----7----|
G|---8------8-----8------8-----8-----8------|
D|-9-----10-----8-----10-----9--------------|
A|---------------------------------9--------|
E|------------------------------------------|

E|-----------------------7------------------|
B|-----------0-0-----7-7--------------------|
G|---------------8-8------------------------|
D|-------4-4--------------------------------|
A|---6-6------------------------------------|
E|-7----------------------------------------|

                                     H.N.
E|-7-----------------11-11-14-14-19---19----|
B|-------------12-12------------------0-----|
G|---8-8-11-11------------------------13----|
D|------------------------------------------|
A|------------------------------------------|
E|------------------------------------------|

[Sexta Parte]

      H.N.              . 
E|-----7--5--7--10--7-8-7--5--7-------------|
B|-0----------------------------------------|
G|------------------------------------------|
D|-4---9--7--9--12------9--7--9-------------|
A|-6----------------------------------------|
E|-7----------------------------------------|

        H.N.                    .
E|---2---7--5--7--10--7-8-7--5--7-----------|
B|-4----------------------------------------|
G|-4----------------------------------------|
D|-4-----9--7--9--12------9--7--9-----------|
A|-2----------------------------------------|
E|------------------------------------------|

        H.N.                   .
E|---2---7--6--3-5-3--2--0--3--2------------|
B|-4----------------------------------------|
G|-4----------------------------------------|
D|-4-----9--8------5--4--2--5--4------------|
A|-2----------------------------------------|
E|------------------------------------------|

        H.N.                             .
E|---2---7--8---7--6--2--3-5-3--2--0--3--2--|
B|-4----------------------------------------|
G|-4----------------------------------------|
D|-4-----9--10--9--8--4------5--4-----5--4--|
A|-2-------------------------------7--------|
E|------------------------------------------|

            H.N.
E|-----------0---------------8--------------|
B|-5---4-----7----4-6-4----4----------------|
G|-3---4--------------5-7-------------------|
D|-4---4---5----4---------------------------|
A|-3---2------------------------------------|
E|------------------------------------------|

                                         H.N.
E|---0--------------------------------------|
B|---7-------0---------0------0----7-0------|
G|----------------------------------------9-|
D|-5---------8--7----5------4----5--------8-|
A|------6h9-----6--7------5------------9----|
E|-------------------------------8-----8----|

[Sétima Parte]

E|-------------0--------0-------------------|
B|-----0-------11-------11------------------|
G|-----8------------------------------------|
D|------------------------------------------|
A|---9----0-----------------0---------------|
E|-7--------7--8---10-8-7-------------------|

E|-------------0--------0-------------------|
B|-----0-------11-------11------------------|
G|-----8------------------------------------|
D|------------------------------------------|
A|---9----0-----------------0---------------|
E|-7--------7--8---10-8-7-------------------|

E|------------------------------------------|
B|-----0------------------------------------|
G|-----8------------------------------------|
D|--------7-9-10-12p-10-9-7-----------------|
A|---9--------------------------------------|
E|-7----------------------------------------|

E|------------------------------------------|
B|---0---0---0---0---0---0------------------|
G|------------------------------------------|
D|-9---8-------7---6------------------------|
A|---------9-----------7--------------------|
E|------------------------------------------|

E|------------------------------------------|
B|---0---0---0---0---0---0------------------|
G|------------------------------------------|
D|-5---4-------3---2------------------------|
A|---------6-----------3--------------------|
E|------------------------------------------|

E|------------5---------5--------4----------|
B|-----0------6---------6--------5----------|
G|-----8-----------------------4------------|
D|------------------------------------------|
A|---9--------5h--7p-5----------------------|
E|-7------7-8-----------8-7--0--------------|

E|-----5---------5--------4-----------------|
B|-----6---------6--------5-----------------|
G|----------------------4-------------------|
D|------------------------------------------|
A|-----5h--7p-5-----------------------------|
E|-7-8-----------8-7--0---------------------|

E|-------0----------------------------------|
B|-1--4-----0h1----0----0----0---0----------|
G|---------------2----0---------------------|
D|-2-----2-------1----2----4---5------------|
A|-0-----------------------6---7------------|
E|-------3-------2----0----7---0------------|

E|-0--2--3----0-----------------------------|
B|----------3----1--3--0-3----3--0-3--------|
G|-0-----0------------------3---------------|
D|---------------4-----0----0----0----------|
A|-3-----2-------0--------------------------|
E|---------------------3----2----3----------|

E|-----5-8-6-8-6-5-8-5----------5-8---------|
B|-6-8-----------------8-10-8-7-------------|
G|------------------------------------------|
D|------------------------------------------|
A|------------------------------------------|
E|------------------------------------------|

E|-----------------------------5------5-----|
B|------5-7-5-----------4------7------7-----|
G|-5-7---------7-5------4-------------------|
D|-4-----------5-------------0--------------|
A|-0-----------7------9--------7-9p7--5-----|
E|-------------6----7------8-------------8--|

E|-------------5-------5--------------------|
B|-----4-------7-------7--------------------|
G|-----4------------------------------------|
D|----------0-------------------------------|
A|---9---------7--9p7--5--------------------|
E|-7------8--------------8------------------|

[Oitava Parte]

E|------------7-----7-----7-----7-----7----7|
B|-----4----8-----8-----8-----8-----8-----8-|
G|-----4--------------------7---------------|
D|--------------8-----9---------------------|
A|---9---10-----------------------8-----9---|
E|-7----------------------------------------|

E|------------------------------------------|
B|------7-----7-----7-----7-----7-----7-----|
G|----7-----7-----7-----7-----7-----7-------|
D|--------------------7---------------------|
A|--------8-----9-----------8-----9---------|
E|-10---------------------------------------|

E|-------0-------0--------0-------0---------|
B|------------------------------------------|
G|-----0-------0--------0-------0-----------|
D|---8-------8--------8-------8-------------|
A|---------9-------10-------7---------------|
E|-8----------------------------------------|

                     H.N.       .
E|--------0-------0---7---5--7--10--7-8-7-5-|
B|--------------------0---------------------|
G|------0-------0---------------------------|
D|----8-------8-----------7--9--7-------9-7-|
A|------------------------------------------|
E|-10-------8---------7---------------------|

  H.N.    .   .      .
E|-7------2---7--5-7-10--7-8-7-5--7---------|
B|-0---4------0-------------------0---------|
G|-----4------------------------------------|
D|-----4---------7-9-7-------9-7------------|
A|-----2------7-----------------------------|
E|------------7-----------------------------|

             H.N.    .  .     .  .  
E|-0----------0------------------1----------|
B|-----4-------------0--1--------1--2-------|
G|-3---4--2---0--2---0--------0--2--3-------|
D|-4---4------2------0--2--4--2-------------|
A|-3---2------3---------0-----2-------------|
E|-------------------3--------3-------------|

  H.N.    .
E|-2---0--0---------------------------------|
B|-1------1---0-----------------------------|
G|-2------2---0-----------------------------|
D|--------------7---------------------------|
A|--------2-----9---------------------------|
E|------------------------------------------|

[Nona Parte]

E|------------------------------------------|
B|---0---0----0---0---0----0----------------|
G|------------------------------------------|
D|-----9---10---7---9-----------------------|
A|-7--------------------10------------------|
E|------------------------------------------|

E|------------------------------------------|
B|---0---0----0---0---0----0----------------|
G|------------------------------------------|
D|-----9---10---7---9-----------------------|
A|-7--------------------10------------------|
E|------------------------------------------|

E|------------------------------------------|
B|------------------------------------------|
G|-------0------0-----0-----0-----0---------|
D|------------------------------------------|
A|-7---7------7-----7-----7-----7-----------|
E|---8------6-----8-----6-----8-------------|

                                       H.N.
E|--------------------------------------0---|
B|--------------------------------------0---|
G|-----0-----0-----0-----0-----0-----0--0---|
D|--------------------------------------2-2-|
A|---7-----7-----7-----7-----7-----7----2---|
E|-6-----8-----6-----8-----6-----8------0-0-|
Outros vídeos desta música
    34.715 exibições
      • ½ Tom
      • Am
      • Bbm
      • Bm
      • Cm
      • C#m
      • Dm
      • Ebm
      • Em
      • Fm
      • F#m
      • Gm
      • G#m
    • Adicionar à lista

    Afinação da cifra

    Afinador online

      0 comentários

      Ver todos os comentários

      Entre para o Cifra Club PRO

      Tenha acesso a benefícios exclusivos no App e no Site

      • Chega de anúncios

      • Badges exclusivas

      • Mais recursos no app do Afinador

      • Atendimento Prioritário

      • Aumente seu limite de lista

      • Ajude a produzir mais conteúdo

      Cifra Club Pro

      Aproveite o Cifra Club com benefícios exclusivos e sem anúncios
      Cifra Club Pro
      Aproveite o Cifra Club com benefícios exclusivos e sem anúncios
      OK