Cifra Club

Me Ama

Israel Salazar

Cifra: Principal (violão e guitarra)
Selo Cifra Club: esta cifra foi revisada para atender aos critérios oficiais da nossa Equipe de Qualidade.
tom: C
[Intro]

E|-------------------------------------------|
B|-------------------------------------------|
G|-5~-4~--------5~-4~--------5~-4~--------5--|
D|------2~------------2~-5-----------2~-5----|
A|-------------------------------------------|
E|-------------------------------------------|

[Primeira Parte]

 C
Tem ciumes de mim
Am
O seu amor é como um furacão
  G                                  F
E eu me rendo ao vento de Sua misericórdia
C
Então de repente não vejo mais minhas
       Am
Aflições, eu só vejo á glória
     G
E percebo quão maravilhoso Ele é
     F
E o tanto que Ele me quer

[Refrão]

C           Am
Ô, ele me amou
          G
Ô, ele me ama
         F
Ele me amou

[Solo]

E|-------------------------------------------|
B|-------------------------------------------|
G|-5~-4~--------5~-4~--------5~-4~--------5--|
D|------2~------------2~-5-----------2~-5----|
A|-------------------------------------------|
E|-------------------------------------------|

[Primeira Parte]

 C
Tem ciumes de mim
Am
O seu amor é como um furacão
  G                                  F
E eu me rendo ao vento de Sua misericórdia
C
Então de repente não vejo mais minhas
       Am
Aflições, eu só vejo á glória
     G
E percebo quão maravilhoso Ele é
     F
E o tanto que Ele me quer

[Refrão]

C           Am
Ô, ele me amou
          G
Ô, ele me ama
         F
Ele me amou

[Solo]

E|-------------------------------------------|
B|-------------------------------------------|
G|-5~-4~--------5~-4~--------5~-4~--------5--|
D|------2~------------2~-5-----------2~-5----|
A|-------------------------------------------|
E|-------------------------------------------|

[Refrão]

   C
Me ama
       Am
Ele me ama
       G
Ele me ama
       F
Ele me ama

   C
Me ama
       Am
Ele me ama
       G
Ele me ama
       F
Ele me ama

[Segunda Parte]

 C
Somos sua herança e ele o nosso galardão
 Am
Seu olhar de graça nos atrai à redenção
       G                           F
Se a graça é um oceano estamos afundando

   C
O céu se une à terra como um beijo apaixonado
     Am
Meu coração dispara, em meu peito, acelerado
     G
Não tenho tempo pra perder com ressentimentos
        F
Quando penso que ele

[Refrão]

   C
Me ama
       Am
Ele me ama
       G
Ele me ama
       F
Ele me ama

   C
Me ama
       Am
Ele me ama
       G
Ele me ama
       F
Ele me ama

[Solo]

E|-------------------------------------------|
B|-------------------------------------------|
G|-5~-4~--------5~-4~--------5~-4~--------5--|
D|------2~------------2~-5-----------2~-5----|
A|-------------------------------------------|
E|-------------------------------------------|

[Refrão]

   C
Me ama
       Am
Ele me ama
       G
Ele me ama
       F
Ele me ama

   C
Me ama
       Am
Ele me ama
       G
Ele me ama
       F
Ele me ama

[Refrão]

C           Am
Ô, ele me amou
          G
Ô, ele me ama
         F
Ele me amou

C           Am
Ô, ele me amou
          G
Ô, ele me ama
         F
Ele me amou
00:00 / 00:00
Outros vídeos desta música
Repetir
Outros vídeos desta música
37.226 exibições
    • ½ Tom
    • A
    • Bb
    • B
    • C
    • Db
    • D
    • Eb
    • E
    • F
    • F#
    • G
    • Ab
  • Adicionar à lista

Afinação da cifra

Afinador online

    0 comentários

    Ver todos os comentários

    Entre para o Cifra Club PRO

    Tenha acesso a benefícios exclusivos no App e no Site

    • Chega de anúncios

    • Mais recursos no app do Afinador

    • Atendimento Prioritário

    • Aumente seu limite de lista

    • Ajude a produzir mais conteúdo

    00:00 / 00:00

    Cifra Club Pro

    Aproveite o Cifra Club com benefícios exclusivos e sem anúncios
    Cifra Club Pro
    Aproveite o Cifra Club com benefícios exclusivos e sem anúncios
    OK