Cifra Club

Joulupukin Töissä

J. Karjalainen

Cifra: Principal (violão e guitarra)
Selo Cifra Club: esta cifra foi revisada para atender aos critérios oficiais da nossa Equipe de Qualidade.
tom: C
       3       4
E|----------------|
B|-------------10/|
G|-------------10/|
D|----------------|
A|----------------|
E|----------------|

       1       2       3       4        1       2       3       4       
E|--------------------------------|--------------------------------|
B|131313--13-10/13-13-10------10--| 13--15--13--10--13p10-13--------|
G|121212--12-10/12-12-----12------| 12--12--12--12--12----12--------|
D|--------------------------------|--------------------------------|
A|--------------------------------|--------------------------------|
E|--------------------------------|--------------------------------|

       1       2       3       4        1       2       3       4       
E|131313--13----10/121210-8-------|--------101210-----15--15-------|
B|131313--13----13---1310-10------|----1013------13---15--15-------|
G|--------------------------------| 1214----------------------------|
D|--------------------------------|--------------------------------|
A|--------------------------------|--------------------------------|
E|--------------------------------|--------------------------------|


  [Verse 1]

        G         C   
     Korvatunturilla
        G         C
     Tontut ahkeroi,
        G            C
     Lastut lentää pajasta ja
        D         G (x1012x12x)
     Vannesaha soi.


  [Chorus] x2

     Me ollaan
     C            F     
                  Joulupukin töissä
     C            F     
                  Joulupukin töissä
     C            F     
                  Joulupukin töissä
     G            C
     Täällä jokainen


  [Verse 2]

        G           C
     Viime hetkeen saakka
        G           C
     On kaikki hajalla,
        G           C
     Mutta lahja jokainen
        D         G (x1012x12x)
     Valmistuu ajallaan



  [Chorus] x2

     Me ollaan
     C            F     
                  Joulupukin töissä
     C            F     
                  Joulupukin töissä
     C            F     
                  Joulupukin töissä
     G            C
     Täällä jokainen



  [Solo]


  [Verse 3]

       G           C 
     Aaton alla aina
           G           C 
     On kiire hirmuinen
        G            C 
     Silti työtä hauskempaa
           D         G (x1012x12x)
     Voi kuvitella en
         G               C 
     Tilanteen kai tiedät
        G           C 
     Hyvin sinäkin
           G             C 
     Sä kuulut tonttujoukkoon
          D         G (x1012x12x)
     Niin kuin minäkin



  [Chorus] x4

     Me ollaan
     C            F     
                  Joulupukin töissä
     C            F     
                  Joulupukin töissä
     C            F     
                  Joulupukin töissä
     G            C
     Täällä jokainen
Outros vídeos desta música
    0 exibições
      • ½ Tom
      • A
      • Bb
      • B
      • C
      • Db
      • D
      • Eb
      • E
      • F
      • F#
      • G
      • Ab
    • Adicionar à lista

    Afinação da cifra

    Afinador online

      0 comentários

      Ver todos os comentários

      Conseguiu tocar?

      0Tocaram0Ainda não

      Grave um vídeo tocando Joulupukin Töissä e nos envie!

      Toque também

      1. Imagem do artista Eppu NormaaliJee Jee Eppu Normaali
      2. Imagem do artista Rauli Badding SomerjokiIlta-Aurinko Rauli Badding Somerjoki
      3. Imagem do artista Juice LeskinenEkumeeninen Jenkka Juice Leskinen
      4. Imagem do artista EgotrippiUnihiekkaa Egotrippi

      Entre para o Cifra Club PRO

      Tenha acesso a benefícios exclusivos no App e no Site

      • Chega de anúncios

      • Badges exclusivas

      • Mais recursos no app do Afinador

      • Atendimento Prioritário

      • Aumente seu limite de lista

      • Ajude a produzir mais conteúdo

      Cifra Club Pro

      Aproveite o Cifra Club com benefícios exclusivos e sem anúncios
      Cifra Club Pro
      Aproveite o Cifra Club com benefícios exclusivos e sem anúncios
      Ops (: Contenido disponible sólo en portugués.
      OK