Cifra Club

Nada Me Separa Desse Amor

J. Neto

Cifra: Principal (violão e guitarra)
exibições 104.718
Tom: A
[Intro] B  B  B

B
Nada me separa desse amor
                         C#m
Nada vai tirar Jesus de mim
                    F#
Todo sofrimento acabou
               E
Caminhando eu vou
                 F#
Com Jesus até o fim

 B
Sei que muito vou me alegrar
    B7                    E
Em ter esse caminho a seguir

                            B
Confesso que eu não vou deixar
                  F#
E que nada vai tirar
                         B7
Esse amor que existe em mim

    E                       B
Confesso que eu não vou deixar
                  F#
E que nada vai tirar
                         B7
Esse amor que existe em mim

      B
Eu andava pelas as ruas da cidade
                           C#m
Procurando essa tal felicidade
       F#
Pelos bares eu vivia procurando alegria
 E     F#     B
Mas só encontrei maldade

    B
E quando tudo ia chegando ao fim
    B7                      E
No meu caminho brilhou uma luz
                        B                    F#
E eu que era ovelha perdida hoje tenho nova Vida
                B7
Caminhando com Jesus
  E                     B                    F#
E eu que era ovelha perdida hoje tenho nova vida
                B7
Caminhando com Jesus

[Solo] B  B  B  C#m  F#  F#  E  F#

E|--7-7-7-7--7-7-7-7-7-7-6---6---------------------|
B|--------------------------9----------------------|
G|----------------------------8-8-8~---------------|
D|-------------------------------------------------|
A|-------------------------------------------------|
E|-------------------------------------------------|

E|-------------4-6-7--7-7--6-7-6h7-6---6-----------|
B|--------4-5-7-----------------------9------------|
G|-----4-6------------------------------8/9--9-9~--|
D|--4-6--------------------------------------------|
A|-------------------------------------------------|
E|-------------------------------------------------|

E|-----------9-11h12-11--11-12-11--11h12-11-9-11---|
B|--------7-9--------------------------------------|
G|---6-8-9-----------------------------------------|
D|--6----------------------------------------------|
A|-------------------------------------------------|
E|-------------------------------------------------|

E|-9h11-9-7-9--7h9-7-6-7--6h7-6-------6h7-6-7-6-7--|
B|-----------------------------9-7-----------------|
G|--------------------------------6----------------|
D|-------------------------------------------------|
A|-------------------------------------------------|
E|-------------------------------------------------|

E|-7/9-9-9----12-11-9-11-12-11-9-12-11------11-14--|
B|------9----9----------------------------12-------|
G|--------------------------------------11---------|
D|-------------------------------------------------|
A|-------------------------------------------------|
E|-------------------------------------------------|

E|-12/11--11---------------------------------------|
B|------14---12/14-12-14-11~-----------------------|
G|-------------------------------------------------|
D|-------------------------------------------------|
A|-------------------------------------------------|
E|-------------------------------------------------|

 B
Sei que muito vou me alegrar
    B7                    E
Em ter esse caminho a seguir

    E                       B
Confesso que eu não vou deixar
                  F#
E que nada vai tirar
                         B7
Esse amor que existe em mim

    E                       B
Confesso que eu não vou deixar
                  F#
E que nada vai tirar
                         B7
Esse amor que existe em mim

 B
Nada me separa desse amor
Acordes para:
    Colaboração e revisão:
    • Osmar Martins
    • Izack Viola
    • Luciano Silva

    0 comentários

      mostrar mais comentários

      Conseguiu tocar?

      5tocaram3ainda não

      Grave um vídeo tocando Nada Me Separa Desse Amor e mande pra gente!

      00:00 / 00:00
      outros vídeos desta música
      repetirqualidadeAutomático
      Outro vídeos desta música
        00:00 / 00:00
        OK