Cifra Club

Angels Fuck Devils Kiss

Jack Off Jill

Cifra: Principal (violão e guitarra)
Selo Cifra Club: esta cifra foi revisada para atender aos critérios oficiais da nossa Equipe de Qualidade.
tom: D
E|---3---3---3---3---3---3---3---3---------|
B|-6---6---5---5---4---4---3---3-----------|
G|-----------------------------------------|
D|-----------------------------------------|
A|-----------------------------------------|
E|-----------------------------------------|
  Keep playing the riff a couple times when
  the verse comes in, and when she screams
  start to play these chords:

E|-----------------------------------------|
B|-----------------------------------------|
G|-----------------10-10-10-10-10-10-10-10-|
D|-5-5-5-5-5-5-5-5-10-10-10-10-10-10-10-10-|
A|-5-5-5-5-5-5-5-5-8--8--8--8--8--8--8--8--|
E|-3-3-3-3-3-3-3-3-------------------------|

E|-----------------------------------------|
B|-----------------------------------------|
G|-9-9-9-9-9-9-9-9-8-8-8-8-8-8-8-7---------|
D|-9-9-9-9-9-9-9-9-8-8-8-8-8-8-8-7---------|
A|-7-7-7-7-7-7-7-7-6-6-6-6-6-6-6-5---------|
E|-----------------------------------------|
  and that’s pretty much the whole song,
  just play the riff a couple more times,
  then chords, whatever.

  Listen to “Sexless Demons And Scars”
  (the WHOLE album!!) if you haven’t 
  already. It’s perfect. 
Outros vídeos desta música
23 exibições
    • ½ Tom
    • A
    • Bb
    • B
    • C
    • Db
    • D
    • Eb
    • E
    • F
    • F#
    • G
    • Ab
  • Adicionar à lista

Afinação da cifra

Afinador online

    0 comentários

    Ver todos os comentários

    Entre para o Cifra Club PRO

    Tenha acesso a benefícios exclusivos no App e no Site

    • Chega de anúncios

    • Mais recursos no app do Afinador

    • Atendimento Prioritário

    • Aumente seu limite de lista

    • Ajude a produzir mais conteúdo

    Cifra Club Pro

    Aproveite o Cifra Club com benefícios exclusivos e sem anúncios
    Cifra Club Pro
    Aproveite o Cifra Club com benefícios exclusivos e sem anúncios
    OK