Cifra Club

Love Song

Jack Off Jill

Cifra: Principal (violão e guitarra)
Selo Cifra Club: esta cifra foi revisada para atender aos critérios oficiais da nossa Equipe de Qualidade.
tom: Am
E|E|-----------------------------------------------------------------------------||
                            Love Song - Jack Off Jill
E|E|-----------------------------------------------------------------------------||

Tuning: Standard

Intro
E|----x---------x--------x-------x------------------------------------------|
B|----x---------x--------x-------x------------------------------------------|
G|----2---------x--------x-------x------------------------------------------|
D|----2---------5--------3-------2------------------------------------------|
A|----0---------5--------3-------2------------------------------------------|
E|----x---------3--------1-------0------------------------------------------|
      A        G        F       E

Verses (You play nothing at all, maybe just a stroke of Am)
E|-------------------------------------------------------------------------|
B|-------------------------------------------------------------------------|
G|-------------------------------------------------------------------------|
D|-------------------------------------------------------------------------|
A|-------------------------------------------------------------------------|
E|-------------------------------------------------------------------------|

Chorus (Finish with a single stroke on A5)
E|----x------x-----x-----x-------------------------------------------------|
B|----10-----8-----6-----5-------------------------------------------------|
G|----9------7-----5-----4-------------------------------------------------|
D|----7------5-----3-----2-------------------------------------------------|
A|----x------x-----x-----x-------------------------------------------------|
E|----x------x-----x-----x-------------------------------------------------|
     A5     G5    F5    E5


E|-8-10-12-10--12--10-8-5---8-10-12-10--12--10-8-5---8-10-12-10--12--10-8-5|
B|-------------------------------------------------------------------------|
G|-------------------------------------------------------------------------|
D|-------------------------------------------------------------------------|
A|-------------------------------------------------------------------------|
E|-------------------------------------------------------------------------|
Outros vídeos desta música
7 exibições
    • ½ Tom
    • Am
    • Bbm
    • Bm
    • Cm
    • C#m
    • Dm
    • Ebm
    • Em
    • Fm
    • F#m
    • Gm
    • G#m
  • Adicionar à lista

Afinação da cifra

Afinador online

    0 comentários

    Ver todos os comentários

    Entre para o Cifra Club PRO

    Tenha acesso a benefícios exclusivos no App e no Site

    • Chega de anúncios

    • Mais recursos no app do Afinador

    • Atendimento Prioritário

    • Aumente seu limite de lista

    • Ajude a produzir mais conteúdo

    Cifra Club Pro

    Aproveite o Cifra Club com benefícios exclusivos e sem anúncios
    Cifra Club Pro
    Aproveite o Cifra Club com benefícios exclusivos e sem anúncios
    OK