Cifra Club

My Stunning Mystery Companion

Jackson Browne

Cifra: Principal (violão e guitarra)
Selo Cifra Club: esta cifra foi revisada para atender aos critérios oficiais da nossa Equipe de Qualidade.
tom: D
           G              G                                              D
E|---------0--------------0----------------------------------------------0---------------|
B|---------3--------------3----------------------------------------------3---------------|
G|---------0--------------0----------------------------------------------2---------------|
D|-------0-0----------0---0------0~-------------0--2~----2/4\2p0-----0~--0---------------|
A|-----2---2------0-2---2-2-----------------0-2-----------------2p0----------------------|
E|--0------------------------------------------------------------------------------------|

[First Verse]
    What With All My Expectations Long Abandoned / And a Future I No Longer Saw my Hand In
E|------------0-------------------------0-----------------0------------------------0------|
B|------------3-------------------------3-----------------3------------------------3------|
G|------------0-------------------------2-----------------0------------------------2------|
D|------------0-------------------------0-----------------0------------------------0------|
A|------------2-------------------------------------------2-------------------------------|
E|----------------------------------------------------------------------------------------|
 
   How I Found You Is Beyond My Understanding / My Stunning, Mystery Companion...
E|-------0----------------------------0-------------0----------------------0-----|
B|-------3----------------------------3-------------3----------------------3-----|
G|-------0----------------------------2-------------0----------------------2-----|
D|-------0----------------------------0-------------2----------------------0-----|
A|-------2-----------------------------------------------------------------------|
E|-------------------------------------------------------------------------------|

                          I know you don't want to be out here forever on this road
E|------------0-----0-0---0----------------------------------------------------0---------|
B|------------3-----3-3---3----------------------------------------------------3---------|
G|------------2-----2-2---0----------------------------------------------------2---------|
D|------0-----0-----2-0---0----------------------------------------------------0---------|
A|--0-2---0---------------2--------------------------------------------------------------|
E|---------------------------------------------------------------------------------------|

                          Live among the boxes, where all my past live have been stowed
E|------------0-----0-0---0------------------------------------------------------0-------|
B|------------3-----3-3---3------------------------------------------------------3-------|
G|------------2-----2-2---0------------------------------------------------------2-------|
D|------0-----0-----2-0---0------------------------------------------------------0-------|
A|--0-2---0---------------2--------------------------------------------------------------|
E|---------------------------------------------------------------------------------------|

                          Maybe you were thinking of someplace with a garden by the sea
E|------------0-----0-0---0---------------------------------------------------------0----|
B|------------3-----3-3---3---------------------------------------------------------3----|
G|------------2-----2-2---0---------------------------------------------------------2----|
D|------0-----0-----2-0---0---------------------------------------------------------0----|
A|--0-2---0---------------2--------------------------------------------------------------|
E|---------------------------------------------------------------------------------------|

                    Where you could slow down....and you can put a little more work in on me
E|------------0---------------------0----------------------------------------------------0----|
B|------------3---------------------3----------------------------------------------------3----|
G|------------2---------------------0----------------------------------------------------2----|
D|------0-----0---------------------2----------------------------------------------------0----|
A|--0-2---0-----------------------------------------------------------------------------------|
E|--------------------------------------------------------------------------------------------|

E|-----------0----------|
B|-----------3----------|
G|-----------2----------|
D|------0----0----------|
A|--0-2---0-------------|
E|----------------------|


    What With All My Expectations Long Abandoned / And My Solitary Nature Not Withstanding
E|------------0-------------------------0-----------------0------------------------0------|
B|------------3-------------------------3-----------------3------------------------3------|
G|------------0-------------------------2-----------------0------------------------2------|
D|------------0-------------------------0-----------------0------------------------0------|
A|------------2-------------------------------------------2-------------------------------|
E|----------------------------------------------------------------------------------------|
 
   You're the one who pulled me out of that crash landing / My Stunning, Mystery Companion...
E|-------------0-----------------------------------0------------0----------------------0-----|
B|-------------3-----------------------------------3------------3----------------------3-----|
G|-------------0-----------------------------------2------------0----------------------2-----|
D|-------------0-----------------------------------0------------2----------------------0-----|
A|-------------2-----------------------------------------------------------------------------|
E|-------------------------------------------------------------------------------------------|

Solo:

This is never played the same way twice...Feel Free To Improvise off the progression, this is how
I play it, it is shorter than his usual improve...again strum the cords a bit here

E|----------0---------------0--| |----------0------------------------------------------------------------|
B|----------3---------------3--| |----------3------------------------------------------------------------|
G|----------0---------------2--| x2 |----------0--------------------2~~----2-4p2---2~~---x--2/4\2p0---------|
D|------0---0----------0----0--| |--------0-0-------2p0-0---2/4----------4---4--2~~---x--2/4\2p0-----0~--|
A|--0-2---2-2------0-2---------| |----0-2---2---0-2-------0---------------------------------------2p0----|
E|-----------------------------| |-----------------------------------------------------------------------|

E|--0-----0-0--|
B|--3-----3-3--|
G|--2-----2-2--|
D|--0-----2-0--|
A|-------------|
E|-------------|


Second Verse:

       Right now i can't quite remember the cause of all my tears
E|-----0-----------------------------------------------------0---------|
B|-----3-----------------------------------------------------3---------|
G|-----0-----------------------------------------------------2---------|
D|-----0-----------------------------------------------------0---------|
A|-----2--------------------------------------------------------------|
E|--------------------------------------------------------------------|

                          I hear you laughing, and somehow the past just disappears
E|------------0-----0-0---0--------------------------------------------------0-------|
B|------------3-----3-3---3--------------------------------------------------3-------|
G|------------2-----2-2---0--------------------------------------------------2-------|
D|------0-----0-----2-0---0--------------------------------------------------0-------|
A|--0-2---0---------------2----------------------------------------------------------|
E|-----------------------------------------------------------------------------------|

                          Maybe you were joking when you said you'd take me(..)and no more
E|------------0-----0-0---0---------------------------------------------------------0----|
B|------------3-----3-3---3---------------------------------------------------------3----|
G|------------2-----2-2---0---------------------------------------------------------2----|
D|------0-----0-----2-0---0---------------------------------------------------------0----|
A|--0-2---0---------------2--------------------------------------------------------------|
E|---------------------------------------------------------------------------------------|

                     Maybe you've had the best of me but (...) and be sure
E|------------0------0-------------------------------------------------0----|
B|------------3------3-------------------------------------------------3----|
G|------------2------0-------------------------------------------------2----|
D|------0-----0------2-------------------------------------------------0----|
A|--0-2---0-----------------------------------------------------------------|
E|--------------------------------------------------------------------------|

E|-----------0----------|
B|-----------3----------|
G|-----------2----------|
D|------0----0----------|
A|--0-2---0-------------|
E|----------------------|

    What With All My Expectations Long Abandoned / And a life that just gets more and more demanding
E|------------0-------------------------0----------------0-----------------------------------0------|
B|------------3-------------------------3----------------3-----------------------------------3------|
G|------------0-------------------------2----------------0-----------------------------------2------|
D|------------0-------------------------0----------------0-----------------------------------0------|
A|------------2------------------------------------------2------------------------------------------|
E|--------------------------------------------------------------------------------------------------|
 
   There's no doubt you're the reason I'm still Standing / My Stunning, Mystery Companion...
E|-------------0-----------------------------------0------------0----------------------0-----|
B|-------------3-----------------------------------3------------3----------------------3-----|
G|-------------0-----------------------------------2------------0----------------------2-----|
D|-------------0-----------------------------------0------------2----------------------0-----|
A|-------------2-----------------------------------------------------------------------------|
E|-------------------------------------------------------------------------------------------|

    My Stunning, Mystery Companion...
E|------0----------------------0-----|
B|------3----------------------3-----|
G|------0----------------------2-----|
D|------2----------------------0-----|
A|-----------------------------------|
E|-----------------------------------|


************************************

| /   slide up
| \   slide down
| h   hammer-on
| p   pull-off
| ~   vibrato
| x   Palm Mute note
Outros vídeos desta música
    8 exibições
      • ½ Tom
      • A
      • Bb
      • B
      • C
      • Db
      • D
      • Eb
      • E
      • F
      • F#
      • G
      • Ab
    • Adicionar à lista

    Afinação da cifra

    Afinador online

      0 comentários

      Ver todos os comentários

      Entre para o Cifra Club PRO

      Tenha acesso a benefícios exclusivos no App e no Site

      • Chega de anúncios

      • Badges exclusivas

      • Mais recursos no app do Afinador

      • Atendimento Prioritário

      • Aumente seu limite de lista

      • Ajude a produzir mais conteúdo

      Cifra Club Pro

      Aproveite o Cifra Club com benefícios exclusivos e sem anúncios
      Cifra Club Pro
      Aproveite o Cifra Club com benefícios exclusivos e sem anúncios
      Ops (: Contenido disponible sólo en portugués.
      OK