Cifra Club

These Times Youve Come

Jackson Browne

Cifra: Principal (violão e guitarra)
Selo Cifra Club: esta cifra foi revisada para atender aos critérios oficiais da nossa Equipe de Qualidade.
tom: G
Intro: 
 
e|-------3--2--------------3--2-------------| 
B|--------------0-----------------0---------| 
G|----0-----------0-----0-----------0-------| 
D|------------------------------------------| 
A|------------------------------------------| 
e|--3-----------------3---------------------| 
 
e|-------3--2----------0--------------------| 
B|--------------0-------1-------------------| 
G|----0-----------0----0--------------------| 
D|-----------------------2------------------| 
A|-----------------------3------------------| 
e|--3---------------------------------------| 
 
e|-------3--2--3--2--0-----------------------| 
B|-------------------------3--3------3-------| 
G|----0---------------------------0----------| 
D|-------------------------------------------| 
A|-------------------------------------------| 
e|--3----------------------3--3--------------| 
 
e|--------3--2--3--2--0-------------0--------| 
B|---------------------------3--3------1-----| 
G|-----0-------------------------------0-----| 
D|--------------------------------------2----| 
A|--------------------------------------3----| 
e|--3------------------------3--3------------| 
 
First Verse: 
         G 
In the time we've known, 
                                               C 
That we each are a part of one another 
                     D7sus4                  G 
We've lost as much as we have won 
C               G 
And as our lives have grown, 
 
We have found that it only brings us pain 
     C                   D7sus4                  Em 
To hang on to the things that we have done 
D7sus4                                             G 
            Still I've loved the times you've come 
 
repeat intro 
 
2nd Verse 
 
When you went away 
Taking all that I built my false road on 
I dropped my life and couldn't find the pieces 
Now you come and go, 
And it's hard but I feel my strength returning 
We'll see how far this new road reaches 
We'll see a little more each time we come 
 
Bridge: 
C                         D7            D7sus4 G 
Everybody's gonna tell you it's not worth it 
G9   C                        D7          D7sus4   Em 
       Everybody's gotta show you their own pain 
C                     D7sus4   D7            G  G9 
You might try to find your way up around it 
C                                        G  D7sus4 
But the need for love will still remain 
 
Last Verse 
 
Now we're lying here, 
So safe in the ruins of our pleasure 
Laughter marks the place where we have fallen 
And our lives are near 
So it wouldn't occur to us to wonder 
Is this the past or the future that is calling 
You know I've loved these times you've come 
 
repeat intro
Outros vídeos desta música
    590 exibições
      • ½ Tom
      • A
      • Bb
      • B
      • C
      • Db
      • D
      • Eb
      • E
      • F
      • F#
      • G
      • Ab
    • Adicionar à lista

    Afinação da cifra

    Afinador online

      0 comentários

      Ver todos os comentários

      Entre para o Cifra Club PRO

      Tenha acesso a benefícios exclusivos no App e no Site

      • Chega de anúncios

      • Badges exclusivas

      • Mais recursos no app do Afinador

      • Atendimento Prioritário

      • Aumente seu limite de lista

      • Ajude a produzir mais conteúdo

      Cifra Club Pro

      Aproveite o Cifra Club com benefícios exclusivos e sem anúncios
      Cifra Club Pro
      Aproveite o Cifra Club com benefícios exclusivos e sem anúncios
      Ops (: Contenido disponible sólo en portugués.
      OK