Cifra Club

I Want You Back

The Jackson 5

Tab de baixo: Principal
Selo Cifra Club: esta cifra foi revisada para atender aos critérios oficiais da nossa Equipe de Qualidade.
tom: Afinação:
Intro:
G|----------------------------------------------------------------|
D|----------------------------------------------------------------|
A|------------3684----------34-5678-------4-----------6-----------|
E|4----------6-------------6----------8------4----6------4--------|

G|----------------------------------------------------------------|
D|------------------------------------------------------------6-6-|
A|------------3684----------34-5678-------4-----------6-----68-8--|
E|4----------6-------------6----------8------4----6------4--------|

G|----------------------------------------------------------------|
D|6-665--5----------------------------------------------------6-6-|
A|--------88-6--6-4--43--3---6--678--8----4-----------6-----68-8--|
E|-------------8-8--------66---8------8------4----6------4--------|

Verso 1:
G|----------------------------------------------------------------|
D|------------------------------------------------------------6-6-|
A|------------3684----------34-5678-------4-----------6-----68-8--|
E|4----------6-------------6----------8------4----6------4--------|

G|----------------------------------------------------------------|
D|------------------------------------------------------------6-6-|
A|------------3684----------34-5678-------4-----------6-----68-8--|
E|4----------6-------------6----------8------4----6------4--------|

G|----------------------------------------------------------------|
D|6-665--5----------------------------------------------------6-6-|
A|--------88-6--6-4--43--3---6--678--8----4-----------6-----68-8--|
E|-------------8-8--------66---8------8------4----6------4--------|

G|--------------------------------------------------------|
D|6-665--5------------------------------------------------|
A|--------88-6--6-4--43--3---6--678--8----4-----------6---|
E|-------------8-8--------66---8------8------4----6-------|
 [- - - - - - - - ]
G|----------------|
D|----------------|  (4x)
A|----------------|
E|-4444-----------|

Verso 2:
G|----------------------------------------------------------------|
D|------------------------------------------------------------6-6-|
A|------------3684----------34-5678-------4-----------6-----68-8--|
E|4----------6-------------6----------8------4----6------4--------|

G|----------------------------------------------------------------|
D|------------------------------------------------------------6-6-|
A|------------3684----------34-5678-------4-----------6-----68-8--|
E|4----------6-------------6----------8------4----6------4--------|

Refrão:
G|------------------6---------------------------------------------|
D|6-665--5---------6------------------------------------------6-6-|
A|--------88-6--6-4--3-33-----66678--8----4-----------6-----68-8--|
E|-------------8-8-------6-666--------8------4----6------4--------|
                                                         
G|------------------------------------------------|
D|6-665--5----------------------------------------|
A|--------88-6--6-4--43--3---6--678--8----4-------|
E|-------------8-8--------66---8------8------4----|

G|----------------------------------------------------------------|
D|------------------------------6---------------6-----------------|
A|-----------------------------8-------68------8-------68---------|
E|-------------------------------8-------4-------8-------4--------|

G|--5-------------|
D|-6----5--36-----|   (4x)
A|8--3-6-4-----36-|
E|-----------4----|

Refrão:                                         
G|--------------------------------------------------------|
D|6-665--5------------------------------------------------|
A|--------88-6--6-4--43--3---6--678--8----4-----------6---|
E|-------------8-8--------66---8------8------4----6-------|

G|----------------|----------------|
D|----------------|--------------6-|
A|----------------|------------68-8|
E|-4444-----------|-4444-----------|

G|------------------6-------------------------------------|
D|6-665--5---------6--------------------------------------|
A|--------88-6--6-4--3-33-----66678--8----4-----------6---|
E|-------------8-8-------6-666--------8------4----6-------|

G|----------------|----------------|
D|----------------|--------------6-|
A|----------------|------------68-8|
E|-4444-----------|-4444-----------|

G|------------------6-------------------------------------|
D|6-665--5---------6--------------------------------------|
A|--------88-6--6-4--3-33-----66678--8----4-----------6---|
E|-------------8-8-------6-666--------8------4----6-------|

G|----------------|----------------|
D|----------------|--------------6-|
A|----------------|------------68-8|
E|-4444-----------|-4444-----------|
Outros vídeos desta música
    19.134 exibições

    Afinação da cifra

    Afinador online

    0 comentários

    Ver todos os comentários

    Entre para o Cifra Club PRO

    Tenha acesso a benefícios exclusivos no App e no Site

    • Chega de anúncios

    • Badges exclusivas

    • Mais recursos no app do Afinador

    • Atendimento Prioritário

    • Aumente seu limite de lista

    • Ajude a produzir mais conteúdo

    Cifra Club Pro

    Aproveite o Cifra Club com benefícios exclusivos e sem anúncios
    Cifra Club Pro
    Aproveite o Cifra Club com benefícios exclusivos e sem anúncios
    OK