Cifra Club

Fade to grey

Jars Of Clay

Cifra: Principal (violão e guitarra)
tom: Bb (forma dos acordes no tom de G) Capotraste na 3ª casa
Guitar 1: (Matt Odmark) EABEBE w/capo on 3rd fret
Guitar 2: (Steve Mason) electric in standard tuning

Chords:
EABEBE chords **relative to capo**                  Electric chords 
e--0----0----0----0-----0---------0-----3-----0----|---3-----3------3-----0----|
B--0----3----0----0-----0---------5-----0-----1----|---3-----3------3-----3----|
E--0----0----2----5-----0---------0-----3-----0----|---0-----0------0-----2----|
B--5----3----0----5-----0---------5-----0-----1----|---0-----0------2-----0----|
A--0----0----2----0-----2---------0-----3-----0----|---2-----1------3----------|
E-------3---------0-----0---------5-----------1----|---3-----------------------|
  Cm7   Bb   D   Cadd9 Gm7 & G   Cm    Fm7  Abmaj7     G     Bb   Cadd9   D
 
Verse 1: organ only

Cm7          Fm7                      Bb            
Oh it's not hard to know what you're thinking
               Gm7
When you look down on me now
Cm7     Fm7             Bb             
Your trance of love is seeking
    Gm7 
To turn this world around
Cm7       Fm7              Bb          
But in my state of blind confusion 
     Gm7
No God can pull me out
Cm7     Fm7         Bb
I see your love is willing
    Gm7                 Cm
To turn me inside out 
G       Cadd9        Bb     D  
Then I see you there
G            Cadd9       Bb     D
These lonely tears I cry

Verse 2:  Guitar 1 only  **listen for rhythm - it isn't a constant strum**

Cm7       Fm7                Bb  
It's in despair that I find faith
      Gm7                               Cm7 
And i'll summon the night and bow down to day
       Fm7         Bb            Gm7           Cm     
If ignorance is bliss Won't you save me from myself

Chorus: both guitars

G       Cadd9                   Bb                    D       
Then I see you there with your arms open wide and you try to embrace me
G         Cadd9                Bb                      D
These lonely tears I cry they keep me in chains and I wish they'd release me
G            Cadd9             Bb                       D
Cold is the night but colder still is the heart made of stone turned from clay
G           Cadd9             Bb                       D       
And if you follow me you'll see all the black all the white fade to grey

Refrain:   

Guitar 1:   Cm    Bb    Abmaj7   x4
Guitar 2:
G-----------------------------------------------------------------------
D------5-----6--5---5-------5-----6--5---5-----6---6---6---6---6---5----  
A---6-----6-------6------6-----6-------6---------6-------6-------6------
E-----------------------------------------------------------------------

Repeat chorus until fade
Composição de Charlie Lowell / Dan Haseltine / Matt Bronleewe / Matt Odmark / Steve Mason
1.316 exibições
    • ½ Tom
    • A
    • Bb
    • B
    • C
    • Db
    • D
    • Eb
    • E
    • F
    • F#
    • G
    • Ab
  • Adicionar à lista

    0 comentários

    Ver todos os comentários
    00:00 / 00:00
    Outros vídeos desta música
    Repetir Qualidade Automático
    Outros vídeos desta música
    00:00 / 00:00
    Automático

    Cifra Club Pro

    Aproveite o Cifra Club com benefícios exclusivos e sem anúncios
    Cifra Club Pro
    Aproveite o Cifra Club com benefícios exclusivos e sem anúncios
    OK