Cifra Club

Frail

Jars Of Clay

Cifra: Principal (violão e guitarra)
tom: G
[INTRO]

D                                      Am7            Esus4
-------2------2---------2----2-------0-----0-----------------------|
---------3------3---------3----3-------1-----1------0-----0--------|
-----------2------2---------2----2-------0-----0------2-----2------|
-----0----------------0-------------2-------------------0-----0----|
----------------------------------------------------2--------------|
-------------------------------------------------------------------|

D               
Convinced of my deception
Am7   Esus4
I've always been a fool
D
I fear this love reaction
Am7   Esus4
Just like you said I would
D
A rose could never lie
Am7   Esus4
About the love it brings
D
And I could never promise
Am7             
to be any of those things
Chorus:
D
If I was not so weak
Am7
If I was not so cold
D
If I was not so scared of being broken
Am7
Growing old
D
I would be
Am7
I would be

Blessed are the shallow
Depth they'll never find
Seems to be some comfort
In rooms I try to hide
Exposed beyond the shadows
You take the cup from me
Your dirt removes my blindness
Your pain becomes my peace

[INTRO]

D                                      Am7            Esus4
-------2------2---------2----2-------0-----0-----------------------|
---------3------3---------3----3-------1-----1------0-----0--------|
-----------2------2---------2----2-------0-----0------2-----2------|
-----0----------------0-------------2-------------------0-----0----|
----------------------------------------------------2--------------|
-------------------------------------------------------------------|

D               
Convinced of my deception
Am7   Esus4
I've always been a fool
D
I fear this love reaction
Am7   Esus4
Just like you said I would
D
A rose could never lie
Am7   Esus4
About the love it brings
D
And I could never promise
Am7             
to be any of those things
Chorus:
D
If I was not so weak
Am7
If I was not so cold
D
If I was not so scared of being broken
Am7
Growing old
D
I would be
Am7
I would be

Blessed are the shallow
Depth they'll never find
Seems to be some comfort
In rooms I try to hide
Exposed beyond the shadows
You take the cup from me
Your dirt removes my blindness
Your pain becomes my peace

[Refrão]

I would be
I would be
Frail

I would be
I would be
Frail
Composição de Charlie Lowell / Dan Haseltine / Matt Odmark / Steve Mason
Colaboração e revisão:
  • Pâmella Santos
2.082 exibições
    • ½ Tom
    • A
    • Bb
    • B
    • C
    • Db
    • D
    • Eb
    • E
    • F
    • F#
    • G
    • Ab
  • Adicionar à lista

    0 comentários

    Ver todos os comentários
    00:00 / 00:00
    Outros vídeos desta música
    Repetir Qualidade Automático
    Outros vídeos desta música
    00:00 / 00:00
    Automático

    Cifra Club Pro

    Aproveite o Cifra Club com benefícios exclusivos e sem anúncios
    Cifra Club Pro
    Aproveite o Cifra Club com benefícios exclusivos e sem anúncios
    OK