Cifra Club

Volta Pro Meu Coração

João Carreiro e Capataz

Cifra: Principal
exibições 107.668
Tom: C
Intro:
   C       G    C            F      G       C        Am                         G
E|-----------------------------------------------------------------------------3-------
B|-------------------------------------------------------------------------1/3---3-3/5-
G|-------0------------0-2-4-5-4h5p4-2-0--0h2-0-----------------------0-2-4-------------
D|-0h2-3---0-0h2--2h3---------------------------2-0h2p0------0-2-0h2-------------------
A|------------------------------------------------------3-3----------------------------
E|-------------------------------------------------------------------------------------

Dedilhado da primeira parte (violão 1):
          G                 C
E|--------3-------|--------0-------|
B|----3-------3---|----1-------1---|
G|--0---0---0---0-|--0---0---0---0-|
D|----------------|----------------|
A|----------------|-3------3-------|
E|-3------3-------|----------------|

          G                 C
E|--------3-------|--------0-------|
B|----3-------3---|----1-------1---|
G|--0---0---0---0-|--0---0---0---0-|
D|----------------|----------------|
A|----------------|-3------3-------|
E|-3------3-------|----------------|

       F        G        C        Am           G
E|--------|--------|--------|--------|--------3-------|
B|----1---|----3---|----1---|----1---|----3-------3---|
G|--2---1-|--0---0-|--0---0-|--2---2-|--0---0---0---3-|
D|--------|--------|--------|--------|----------------|
A|--------|--------|-3------|-0------|----------------|
E|-1------|-3------|--------|--------|-3------3-------|

       F        G            C                 G                C
E|--------|--------|---------0-------|--------3-------|--------0-------|
B|----1---|----3---|----1--------1---|----3-------3---|----1-------1---|
G|--2---1-|--0---0-|--0---0----0---0-|--0---0---0---0-|--0---0---0---1-|
D|--------|--------|-----------------|----------------|----------------|
A|--------|--------|-3-------3-------|----------------|-3------3-------|
E|-1------|-3------|-----------------|-3------3-------|----------------|

       F        G        C        Am           G
E|--------|--------|--------|--------|--------3-------|
B|----1---|----3---|----1---|----1---|----3-------3---|
G|--2---1-|--0---0-|--0---0-|--2---2-|--0---0---0---3-|
D|--------|--------|--------|--------|----------------|
A|--------|--------|-3------|-0------|----------------|
E|-1------|-3------|--------|--------|-3------3-------|

Riff 1 (violão 2)

B|-5-3-1-----1/3-|

Riff 2 (violão 2)

E|-----0-1------------|
B|-1-3----------1-3-5-|

Riff 3 (violão 2)

B|-3/5-6-6/8-8~|

Riff 4 (violão 2)

B|--1-1-3-3/5~|

Riff 5 (violão 2)

B|-15-14h15p14-12|

(1º parte)
       G        C
Tentei fugir de ti
           G9    C
Tentei te esquecer
        F        G      C
Tentei arrancar você de mim,
(Riff 1)
   Am       G
 mas enfim não deu
(Riff 2)
        F           G   C
Tentei trancar meu coração e ser
(Riff 3)
  G                 C
 contrário a essa paixão
(Riff 4)
       F        G     C
Tentei apenas sobreviver sem
(Riff 5)
  Am              G
você mas não deu, não deu, não deu
(Refrão)
Riff 6

A|---0-2-3-|
E|-3-------|

Riff 7

D|---------------5/3-3-|
A|---0-2-3---5/7-------|
E|-3-------------------|
Riff 8

E|---0---0----0--0-|
B|-5---5----3----1-|

(Riff 6)
  C                F
Doeu demais ver você partir
(Riff 6)
 C               G
Doeu de mais em mim
(Riff 7)
     C                 F
Tá doendo demais essa solidão
C              G    C
Volta pro meu coração
(Riff 6)
  C                F
Doeu demais ver você partir
(Riff 6)
 C               G
Doeu de mais em mim
(Riff 7)
     C                 F
Tá doendo demais essa solidão
(Riff 8)
C              G    C
Volta pro meu coração
Solo:

    C         F      Am          G
E|--------------------17-12/14-12-|
B|----------------/15-------------|
G|-3/5-0-----2--------------------|
D|-------2-3----------------------|
A|--------------------------------|
E|--------------------------------|
    Am                          F          C    G  C
E|------------------------------------------------|
B|------------------------------------------------|
G|-------------------13h15-15-14-12------/11-/9-7~|
D|----------13h15-15------------------------------|
A|-13h15-15---------------------------------------|
E|------------------------------------------------|

(Riff 2)
        F           G   C
Tentei trancar meu coração e ser
(Riff 3)
  G                 C
 contrário a essa paixão
(Riff 4)
       F        G     C
Tentei apenas sobreviver sem
(Riff 5)
  Am              G
você mas não deu, não deu, não deu

Refrão:
(Riff 6)
  C                F
Doeu demais ver você partir
(Riff 6)
 C               G
Doeu de mais em mim
D|-------------3/5-3-2-0-2-0---|
A|---0-2-3-3/7---------------3-|
E|-3---------------------------|

     C                 F
Tá doendo demais essa solidão
C              G    C
Volta pro meu coração
(Riff 6)
  C                F
Doeu demais ver você partir
(Riff 6)
 C               G
Doeu de mais em mim
     C                 F
Tá doendo demais essa solidão
C              G    C
Volta pro meu coração
C              F
Doeu de mais...
C                G
Doeu de mais em mim...

Tá doendo de mais essa solidão
C             G     C
Volta pro meu coração
                G       C
Volta pro meu coração
Acordes para:
    Colaboração e revisão:
    • Adilson Santos
    • Allan caixeta
    • EDIMAR DUVORAK

    0 comentários

      mostrar mais comentários

      Conseguiu tocar?

      10tocaram0ainda não

      Grave um vídeo tocando Volta Pro Meu Coração e mande pra gente!

      00:00 / 00:00
      outros vídeos desta música
      repetirqualidadeautomática
      Outro vídeos desta música
        00:00 / 00:00
        automática
        OK