Cifra Club

Aprenda

Suíte 14 (part. Mc Guimê)

Henrique e Diego

Cifra: Principal (violão e guitarra)
Tom: Db (forma dos acordes no tom de G) Capotraste na 6ª casa
Intro: Em7  C7M(9)  G  D

Parte 1
    Em7
E|------------------------------------------|
B|----0-------------------------------------|
G|----0--0---0----2h4p2p0-------------------|
D|----0--0---0------------------------------|
A|-2--2----2---2----------------------------|
E|-0-------0---0----------------------------|
   ↓  ↓  ↑ ↓ ↑ ↓

Parte 2
    C7M(9)
E|------------------------------------------|
B|----0--0---0------------------------------|
G|----0--0---0----2h4p2p0-------------------|
D|-0--0--0-0-0-0----------------------------|
A|-3--3----3---3----------------------------|
E|------------------------------------------|
   ↓  ↓  ↑ ↓ ↑ ↓

Parte 3
    G                       D
E|------------------------------------------|
B|----0--0---0-------------3----------------|
G|----0--0---0----2h4p2p0--2----------------|
D|----0--0---0-------------0----------------|
A|------------------------------------------|
E|-3-------3---3----------------------------|
   ↓  ↓  ↑ ↓ ↑ ↓           ↓


Primeira Parte:

Parte 1
    Em7
E|------------------------------------------|
B|----0-------------------------------------|
G|----0--0---0----2h4p2p0-------------------|
D|----0--0---0------------------------------|
A|-2--2----2---2----------------------------|
E|-0-------0---0----------------------------|
   ↓  ↓  ↑ ↓ ↑ ↓

Parte 2
    C7M(9)
E|------------------------------------------|
B|----0--0---0------------------------------|
G|----0--0---0----2h4p2p0-------------------|
D|-0--0--0-0-0-0----------------------------|
A|-3--3----3---3----------------------------|
E|------------------------------------------|
   ↓  ↓  ↑ ↓ ↑ ↓

Parte 3 (com variação)
    G                       D
E|----------------------------x-x-----------|
B|----0--0---0-------------3--x-x-----------|
G|----0--0---0----2h4p2p0--2--x-x-----------|
D|----0--0---0-------------0--x-x-----------|
A|----------------------------x-x-----------|
E|-3-------3---3--------------x-x--7\3------|
   ↓  ↓  ↑ ↓ ↑ ↓           ↓  ↓ ↑

Parte 1
    Em7
E|------------------------------------------|
B|----0-------------------------------------|
G|----0--0---0----2h4p2p0-------------------|
D|----0--0---0------------------------------|
A|-2--2----2---2----------------------------|
E|-0-------0---0----------------------------|
   ↓  ↓  ↑ ↓ ↑ ↓

Parte 2
    C7M(9)
E|------------------------------------------|
B|----0--0---0------------------------------|
G|----0--0---0----2h4p2p0-------------------|
D|-0--0--0-0-0-0----------------------------|
A|-3--3----3---3----------------------------|
E|------------------------------------------|
   ↓  ↓  ↑ ↓ ↑ ↓

Parte 3
    G                       D
E|------------------------------------------|
B|----0--0---0-------------3----------------|
G|----0--0---0----2h4p2p0--2----------------|
D|----0--0---0-------------0----------------|
A|------------------------------------------|
E|-3-------3---3----------------------------|
   ↓  ↓  ↑ ↓ ↑ ↓           ↓

Parte 4
E|------------------------------------------|
B|-----0------------------------------------|
G|-2/4---4\2p0--2h4p2p0-----0---------------|
D|----------------------2h4-----------------|
A|------------------------------------------|
E|------------------------------------------|

       Em7
E vai ver que o frio é maior
           C7M(9)
Quando eu não for mais seu cobertor
G
  Nem ouvir minha voz dizendo
D
  Já é hora, acorda, amor

Em7
    Ainda é tempo pra nós
C7M(9)
       Seu lugar é aqui
G
  Nem passou, nem vai passar
D
  Quando a gente ama é assim


Pré-refrão:

Am                  C
   Briga, separa, quebra a cara e volta
 G
Vê que sem o outro
   D
A vida é tão sem graça
Am                  C
   Me ligue agora, tô te esperando
G                         B7
  Vou te contar o que eu tô imaginando


Refrão:

 Em        C
Suíte 14, banheira de espuma
 G
Nós dois se amando 
      D
E a lua por testemunha

 Em                D
Jantar à luz de vela 
  C
Champagne com cereja
G
  E a vida inteira 
          B7
O nosso amor de sobremesa

( Em  C  G  D  B7 )

Segunda Parte:

Em
É, de sobremesa cê vem curtindo
    C
Mulher, mas que beleza te ver sorrindo
G
  É o que me faz ver o dia mais lindo
D
  Viver em paz, nós dois num só caminho

Em
   Vou de mansinho, faço a pena valer
   C
Te amo odeio 

Mas mesmo assim quero você
 G
Só você pra me ganhar com o olhar
    D
Curtindo até me perco te dou direito 

De me achar

Pré-refrão:

Am                  C
   Briga, separa, quebra a cara e volta
 G
Vê que sem o outro
   D
A vida é tão sem graça
Am                  C
   Me ligue agora, tô te esperando
G                         B7
  Vou te contar o que eu tô imaginando

Refrão Final:

 Em        C
Suíte 14, banheira de espuma
 G
Nós dois se amando 
      D
E a lua por testemunha

 Em                D
Jantar à luz de vela 
  C
Champagne com cereja
G
  E a vida inteira 
          B7
O nosso amor de sobremesa

 Em        C
Suíte 14, banheira de espuma
 G
Nós dois se amando 
      D
E a lua por testemunha

 Em                D
Jantar à luz de vela 
  C
Champagne com cereja
G
  E a vida inteira 
          B7            Em  C
O nosso amor de sobremesa
G
  A vida inteira 
          D           B7
O nosso amor de sobremesa

Final:

Parte 1
    Em7
E|------------------------------------------|
B|----0-------------------------------------|
G|----0--0---0----2h4p2p0-------------------|
D|----0--0---0------------------------------|
A|-2--2----2---2----------------------------|
E|-0-------0---0----------------------------|
   ↓  ↓  ↑ ↓ ↑ ↓

Parte 2
    C7M(9)
E|------------------------------------------|
B|----0--0---0------------------------------|
G|----0--0---0----2h4p2p0-------------------|
D|-0--0--0-0-0-0----------------------------|
A|-3--3----3---3----------------------------|
E|------------------------------------------|
   ↓  ↓  ↑ ↓ ↑ ↓

Parte 3
    G                       D
E|------------------------------------------|
B|----0--0---0-------------3----------------|
G|----0--0---0----2h4p2p0--2----------------|
D|----0--0---0-------------0----------------|
A|------------------------------------------|
E|-3-------3---3----------------------------|
   ↓  ↓  ↑ ↓ ↑ ↓           ↓

Parte 4
E|------------------------------------------|
B|-----0------------------------------------|
G|-2/4---4\2p0--2h4p2p0-----0---------------|
D|----------------------2h4-----------------|
A|------------------------------------------|
E|------------------------------------------|

      Em7
Quer ser durona

Mas é sensível como vidro
   C7M(9)
Se emociona 

Com nós se amando em uma hidro
     G
Vem como brilho da estrela 

Que brilha da ilha particular
D
  Você merece o melhor

Então venha aqui buscar
Composição de Mauricio Mello / MC Guime
Colaboração e revisão:
1.231.728 exibições
  • Simplificar cifra
    • ½ Tom
    • A
    • Bb
    • B
    • C
    • Db
    • D
    • Eb
    • E
    • F
    • F#
    • G
    • Ab
  • Adicionar à lista

    0 comentários

    Mostrar mais comentários

    Conseguiu tocar?

    49 Tocaram 4 Ainda não

    Grave um vídeo tocando Suíte 14 (part. Mc Guimê) e mande pra gente!

    00:00 / 00:00
    outros vídeos desta música
    repetir qualidade Automático
    Outros vídeos desta música
    00:00 / 00:00
    Automático
    Capítulos
    • Tocando a Música
    • Dicas Iniciais / Equipamentos
    • Acordes da Introdução
    • Tocando a Introdução
    • Ensinando a Introdução
    • Introdução - Parte 1 de 3
    • Introdução - Parte 2 de 3
    • Introdução - Parte 3 de 3
    • Tocando a Primeira Parte
    • Ensinando a Primeira Parte
    • Primeira Parte - Parte 1 de 4
    • Primeira Parte - Parte 2 de 4
    • Primeira Parte - Parte 3 de 4
    • Repetições das Partes 1, 2 e 3
    • Primeira Parte - Parte 4 de 4
    • Acordes do Pré-Refrão
    • Tocando o Pré-Refrão
    • Ensinando o Ritmo do Pré-Refrão
    • Acordes do Refrão
    • Tocando o Refrão
    • Ensinando o Ritmo do Refrão
    • Dicas Para a Segunda Parte
    • Tocando a Segunda Parte
    • Tocando a repetição do Pré-Refrão e Refrão
    • Tocando o Último Refrão
    • Tocando o Final
    • Final - Parte 1 de 4
    • Final - Parte 2 de 4
    • Final - Parte 3 de 4
    • Final - Parte 4 de 4
    • Encerramento
    • Ficha Técnica
    OK