Cifra Club

Aprenda

Esqueci Você

Henrique e Diego

Cifra: Principal (violão e guitarra)
Tom: C
Capotraste 1ª casa
( Dm  G  C  Am  Dm  E  Am )

E|---------------------------------------------------------------------------------------------|
B|-------2-3-7-7-6-4-4-7-7-6-4-4---9-9--7-6-6-4-2-4-6-2--7-6-4--7-6-4-2-4-2---------------2-2-2|
G|-------3-4-8-8-6-5-5-8-8-6-5-5--10-10-8-6-6-5-3-5-6-3--8-6-5--8-6-5-3-5-3-------6-5-3\1-3-3-3|
D|----------------------------------------------------------------------------3-3---------3-3-3|
A|---------------------------------------------------------------------------------------------|
E|---------------------------------------------------------------------------------------------|

       Dm              G
Eu esqueci você, to ligando em plena madrugada 
                               Am
E te acordando pra dizer: esqueci você

E|-----------------|
B|------------2-2-2|
G|----6-5-3\1-3-3-3|
D|3-3---------3-3-3|
A|-----------------|
E|-----------------|

                  Dm                 G
Eu já nem lembro mais, que teu beijo tinha gosto de saudade, 
                                             C         A7
Que no seu perfume era tão doce, eu nem me lembro mais

           Dm                       G
Se eu te ligo na mesa do bar, se você já cansou de escutar
        C                              Am
Que um dia eu iria esquecer, esse dia chegou, acabou de chegar
           Dm                           G
Se ainda guardo lembranças de nós, na memória do meu celular
     C                                Am
Se carrego comigo a foto que agente tirou la na beira do mar
  
      Dm               E                         Am
Tudo isso é pra voce lembrar, lembrar que eu te esqueci

E|---------------------------------------------------------------------------------------------|
B|-------2-3-7-7-6-4-4-7-7-6-4-4---9-9--7-6-6-4-2-4-6-2--7-6-4--7-6-4-2-4-2---------------2-2-2|
G|-------3-4-8-8-6-5-5-8-8-6-5-5--10-10-8-6-6-5-3-5-6-3--8-6-5--8-6-5-3-5-3-------6-5-3\1-3-3-3|
D|----------------------------------------------------------------------------3-3---------3-3-3|
A|---------------------------------------------------------------------------------------------|
E|---------------------------------------------------------------------------------------------|

              Dm              G
Eu esqueci você, to ligando em plena madrugada 
                               Am
E te acordando pra dizer: esqueci você

E|-----------------|
B|------------2-2-2|
G|----6-5-3\1-3-3-3|
D|3-3---------3-3-3|
A|-----------------|
E|-----------------|

                  Dm               G
Eu já nem lembro mais, que teu beijo tinha gosto de saudade, 
                                             C         A7
Que no seu perfume era tão doce, eu nem me lembro mais

           Dm                       G
Se eu te ligo na mesa do bar, se você já cansou de escutar
        C                              Am
Que um dia eu iria esquecer, esse dia chegou, acabou de chegar
           Dm                           G
Se ainda guardo lembranças de nós, na memória do meu celular
     C                                Am
Se carrego comigo a foto que agente tirou la na beira do mar
  
      Dm               E                         Am
Tudo isso é pra voce lembrar, lembrar que eu te esqueci (2x)
Composição de Jairo Alves Dos Santos / Juliano Tchula / Marília Mendonça
Colaboração e revisão:
151.749 exibições
  • Simplificar cifra
    • ½ Tom
    • A
    • Bb
    • B
    • C
    • Db
    • D
    • Eb
    • E
    • F
    • F#
    • G
    • Ab
  • Adicionar à lista

    0 comentários

    Mostrar mais comentários
    00:00 / 00:00
    outros vídeos desta música
    repetir qualidade Automático
    Outros vídeos desta música
    00:00 / 00:00
    Automático

    Cifra Club Pro

    Aproveite o Cifra Club com benefícios exclusivos e sem anúncios
    7 dias grátis
    Cifra Club Pro
    Aproveite o Cifra Club com benefícios exclusivos e sem anúncios
    7 dias grátis
    OK