Cifra Club

Esqueci Você

Henrique & Diego

Cifra: Principal (violão e guitarra)
Selo Cifra Club: esta cifra foi revisada para atender aos critérios oficiais da nossa Equipe de Qualidade.
tom: Bbm (forma dos acordes no tom de Am) Capotraste na 1ª casa
[Intro] Dm7  G  C  Am 
        Dm7  E  Am 

E|------------------------------------------|
B|-2-3-6-6-6-5-3-3--6-6-6-5-3-3-------------|
G|-2-4-7-7-7-5-4-4--7-7-7-5-4-4-------------|
D|------------------------------------------|
A|------------------------------------------|
E|------------------------------------------|

E|------------------------------------------|
B|-8-8-8-6-5-5-3-5-5-3-1-1------------------|
G|-9-9-9-7-5-5-4-5-5-4-2-2------------------|
D|------------------------------------------|
A|------------------------------------------|
E|------------------------------------------|

E|------------------------------------------|
B|-6-5-3-3--6-5-3-3-1-3-1--1p0--1-1-1-------|
G|-7-5-4-4--7-5-4-4-2-4-2-------2-2-2-------|
D|------------------------------------------|
A|------------------------------------------|
E|------------------------------------------|

[Primeira Parte]

         Dm7           G
Eu esqueci você, to ligando em plena madrugada 
                          Am
E te acordando pra dizer,    eu esqueci você
           Dm7           
Eu já nem lembro mais
         G
Que teu beijo tinha gosto de saudade
                                        
Que no seu perfume era tão doce
          C         A7
Eu nem me   lembro mais

[Refrão]

          Dm7                       
Se eu te ligo na mesa do bar 
      G
Se você já cansou de escutar
        C                              
Que um dia eu iria esquecer
             Am
Esse dia chegou, acabou de chegar
           Dm7                           
Se ainda guardo lembranças de nós
      G
Na memória do meu celular
       C                                
Se carrego comigo a foto 
               Am
Que a gente tirou la na beira do mar  
     Dm7                  E                   
Tudo isso é pra você lembrar 
                  Am 
Lembrar que eu te esqueci

[Solo] Dm7  G  C  Am
       Dm7  E  Am

E|------------------------------------------|
B|-2-3-6-6-6-5-3-3--6-6-6-5-3-3-------------|
G|-2-4-7-7-7-5-4-4--7-7-7-5-4-4-------------|
D|------------------------------------------|
A|------------------------------------------|
E|------------------------------------------|

E|------------------------------------------|
B|-8-8-8-6-5-5-3-5-5-3-1-1------------------|
G|-9-9-9-7-5-5-4-5-5-4-2-2------------------|
D|------------------------------------------|
A|------------------------------------------|
E|------------------------------------------|

E|------------------------------------------|
B|-6-5-3-3--6-5-3-3-1-3-1-1-1---------------|
G|-7-5-4-4--7-5-4-4-2-4-2-2-2---------------|
D|------------------------------------------|
A|------------------------------------------|
E|------------------------------------------|

[Primeira Parte]

         Dm7           G
Eu esqueci você, to ligando em plena madrugada 
                          Am
E te acordando pra dizer,    eu esqueci você
           Dm7           
Eu já nem lembro mais
         G
Que teu beijo tinha gosto de saudade
                                        
Que no seu perfume era tão doce
           C          A7
Eu nem me lembro mais

[Refrão]

          Dm7                       
Se eu te ligo na mesa do bar 
      G
Se você já cansou de escutar
        C                              
Que um dia eu iria esquecer
             Am
Esse dia chegou, acabou de chegar
           Dm7                           
Se ainda guardo lembranças de nós
      G
Na memória do meu celular
       C                                
Se carrego comigo a foto 
               Am
Que a gente tirou la na beira do mar  
     Dm7                  E                   
Tudo isso é pra você lembrar 
                  Am 
Lembrar que eu te esqueci

          Dm7                       
Se eu te ligo na mesa do bar 
      G
Se você já cansou de escutar
        C                              
Que um dia eu iria esquecer
             Am
Esse dia chegou, acabou de chegar
           Dm7                           
Se ainda guardo lembranças de nós
      G
Na memória do meu celular
       C                                
Se carrego comigo a foto 
               Am
Que a gente tirou la na beira do mar  
     Dm7                  E                   
Tudo isso é pra você lembrar 
                  Am 
Lembrar que eu te esqueci
  
     Dm7                  E                   
Tudo isso é pra você lembrar 
     Am                 Dm  Am
Lembrar que eu te esqueci
Outros vídeos desta música
    229.944 exibições
    • Simplificar cifra
      • ½ Tom
      • Am
      • Bbm
      • Bm
      • Cm
      • C#m
      • Dm
      • Ebm
      • Em
      • Fm
      • F#m
      • Gm
      • G#m
    • Adicionar à lista

    Afinação da cifra

    Afinador online

      0 comentários

      Ver todos os comentários

      Entre para o Cifra Club PRO

      Tenha acesso a benefícios exclusivos no App e no Site

      • Chega de anúncios

      • Badges exclusivas

      • Mais recursos no app do Afinador

      • Atendimento Prioritário

      • Aumente seu limite de lista

      • Ajude a produzir mais conteúdo

      Cifra Club Pro

      Aproveite o Cifra Club com benefícios exclusivos e sem anúncios
      Cifra Club Pro
      Aproveite o Cifra Club com benefícios exclusivos e sem anúncios
      OK