Cifra Club

All Of Me

John Legend

Cifra: Simplificada (violão e guitarra)
tom: Ab
[Intro] Em  C  G  D

[Dedilhado Intro e Primeira Parte]

   Em         C        G       D
E|----------------------------------2-------|
B|-------0--------1--------0------3---------|
G|-----0--------0--------0------2-----------|
D|---2--------2--------0------0-------------|
A|----------3-------------------------------|
E|-0-----------------3----------------------|

Em               C
   What would I do
                    G
Without your smart mouth
               D
Drawing me in, and you kicking me out
Em         C
   Got my head spinning
 G             D             Em
No kidding, I can't pin you down
             C                     G
What's going on in that beautiful mind
             D               Em
I'm on your magical mystery ride
         C
And I'm so dizzy
        G
Don't know what hit me
    D
But I'll be alright

[Pré-Refrão]

[Dedilhado Pré-Refrão]

   Am                G        D 
E|------------------------------------2-----|
B|-------1--------1--------0--------3-------|
G|-----2--------2--------0--------2---------|
D|---2--------2--------0--------0-----------|
A|-0--------0-------------------------------|
E|-------------------3----------------------|

Am                  G
   My head's under water
    D              Am   
But I'm breathing fine
                 G              D
You're crazy and I'm out of my mind

[Dedilhado Refrão]

[Sequência 1]

   G                 Em 
E|------------------------------------------|
B|-------0--------0--------0--------0-------|
G|-----0--------0--------0--------0---------|
D|---0--------0--------2--------2-----------|
A|------------------------------------------|
E|-3--------3--------0--------0-------------|

   Am                D  
E|-------------------------2--------2-------|
B|-------1--------1------3--------3---------|
G|-----2--------2------2--------2-----------|
D|---2--------2------0--------0-------------|
A|-0--------0-------------------------------|
E|------------------------------------------|

[Sequência 2]

   Em         C        G       D
E|----------------------------------2-------|
B|-------0--------1--------0------3---------|
G|-----0--------0--------0------2-----------|
D|---2--------2--------0------0-------------|
A|----------3-------------------------------|
E|-0-----------------3----------------------|
[Refrão]

       G   
'Cause all of me
      Em   
Loves all of you
           Am   
Love your curves and all your edges
          D            
All your perfect imperfections

          G   
Give your all to me
             Em   
I'll give my all to you
          Am   
You're my end and my beginning
       D              
Even when I lose I'm winning
                  Em  C     G  D
'Cause I give you all   of me
                Em  C     G   D
And you give me all   of you, all

[Segunda Parte]

Em           C                       G
   How many times do I have to tell you
                   D
Even when you're crying
                  Em
You're beautiful too

              C           G
The world is beating you down
      D                   Em
I'm around through every move
           C                   G
You're my downfall, you're my muse
              D
My worst distraction
                Em
My rhythm and blues
              C
I can't stop singing
      G           D
It's ringing, in my head for you

[Pré-Refrão]

Am                  G
   My head's under water
    D              Am   
But I'm breathing fine
                 G              D
You're crazy and I'm out of my mind

[Refrão]

       G   
'Cause all of me
      Em   
Loves all of you
           Am   
Love your curves and all your edges
          D            
All your perfect imperfections

          G   
Give your all to me
             Em   
I'll give my all to you
          Am   
You're my end and my beginning
       D              
Even when I lose I'm winning
                  Em  C     G  D
'Cause I give you all   of me
                Em  C     G   D
And you give me all   of you, all

[Terceira Parte]

[Dedilhado Terceira Parte]

   Am                G        D 
E|------------------------------------2-----|
B|-------1--------1--------0--------3-------|
G|-----2--------2--------0--------2---------|
D|---2--------2--------0--------0-----------|
A|-0--------0-------------------------------|
E|-------------------3----------------------|

                Am   
Give me all of you
              G
Cards on the table
       D            Am   
We're both showing hearts
           G                 D
Risking it all, though it's hard

[Refrão]

       G   
'Cause all of me
      Em   
Loves all of you
           Am   
Love your curves and all your edges
          D            
All your perfect imperfections

          G   
Give your all to me
             Em   
I'll give my all to you
          Am   
You're my end and my beginning
       C              D
Even when I lose I'm winning

                  Em  C     G  D
'Cause I give you all   of me
                Em  C     G   D
And you give me all   of you, all

           Em  C     G  D
I give you all   of me
                Em  C     G   D
And you give me all   of you, all
00:00 / 00:00
Outros vídeos desta música
Repetir
Outros vídeos desta música
Composição de John Legend / Toby Gad
662.132 exibições
    • ½ Tom
    • A
    • Bb
    • B
    • C
    • Db
    • D
    • Eb
    • E
    • F
    • F#
    • G
    • Ab
  • Adicionar à lista

    0 comentários

    Ver todos os comentários

    Conseguiu tocar?

    244 Tocaram 40 Ainda não

    Grave um vídeo tocando All Of Me e nos envie!

    Entre para oCifra Club PRO

    Tenha acesso a benefícios exclusivos no App e no Site

    • Chega de anúncios

    • Prioridade de compra em lançamentos

    • Mais recursos no app do Afinador

    • Atendimento Prioritário

    • Descontos nos produtos Cifra Club

    • Ajude a produzir mais conteúdo

    00:00 / 00:00
    Capítulos
    • Tocando a música
    • Dicas iniciais / Equipamentos
    • Acordes da música
    • Tocando Introdução e Primeira Parte
    • Ensinando Introdução e Primeira Parte
    • Tocando Pré-Refrão
    • Ensinando Pré-Refrão
    • Dicas Refrão
    • Tocando Refrão
    • Ensinando Refrão
    • Dicas Finais
    • Tocando Terceira Parte
    • Ensinando Terceira Parte
    • Encerramento
    • Ficha ténica / Erros de gravação

    Cifra Club Pro

    Aproveite o Cifra Club com benefícios exclusivos e sem anúncios
    Cifra Club Pro
    Aproveite o Cifra Club com benefícios exclusivos e sem anúncios
    OK