Cifra Club

Too Little Too Late

JoJo

Cifra: Versão 2 (violão e guitarra)
tom: A
[Intro]

E|--------------------------------------------------------------|
B|-------2----------0-----------0--------0--0h2-----------------|
G|-----2----------2-----------1--------1---------2-2-2-4--------|
D|-0------------------------------------------------------------|
A|--------------------------------------------------------------|
E|------------2-----------0-------------------------------------|

E|----------------------------------0---------------------------|
B|-------2----------0-------------------------------------------|
G|-----2----------2------------1----------1---1-2---------------|
D|-0-------------------------2----2-----2---2-------------------|
A|--------------------------------------------------------------|
E|------------2-----------0-------------------------------------|

     Bm             F#m            E                
   Come with me, stay the night You say the words, but boy it don't feel right
     Bm              A               E
  What do you expect me to say (You know it's just too little too late)

   Bm               F#m            E            
  You take my hand, and you say you've changed But boy you know your beggin' don't fool me
   Bm            A                  E
  Because to you, it's just a game (You know it's just too little too late)

   Bm        A 
So let me on down, 
      E 
Cause time has made me strong, I'm startin' to move on, 
    Bm               A 
I'm gonna say this now, 
     E 
Your chance has come and gone. 
               Bm 
And you know...   

              A 
It's just too little too late, 
  F#m               E
A little too wrong, 
                 Bm 
And I can't wait, 
             A                       F#m       E                                Bm
Boy you know all the right things to say (You know it's just too little too late.)      
 Bm           A 
You say you dream of my face, 
    F#m                E 
But you don't like me, 
                        Bm 
You just like the chase. 
               A                 F#m        E 
To be real, it doesn't matter anyway, (You know it's just too little too late.)

E|--------------------------------------------------------------|
B|-------2----------0-----------0--------0--0h2-----------------|
G|-----2----------2-----------1--------1---------2-2-2-4--------|
D|-0------------------------------------------------------------|
A|--------------------------------------------------------------|
E|------------2-----------0-------------------------------------|

E|----------------------------------0---------------------------|
B|-------2----------0-------------------------------------------|
G|-----2----------2------------1----------1---1-2---------------|
D|-0-------------------------2----2-----2---2-------------------|
A|--------------------------------------------------------------|
E|------------2-----------0-------------------------------------|

  Bm           F#m          E                  
  I was young, and in love, I gave you everything, but it wasn't enough
   Bm           A             E
  And now you wanna communicate. (You know it's just too little too late)

Bm              A
Go find someone else,
   E
In lettin' you go, I'm lovin' myself, 
    Bm          A 
You got a problem, 
               E 
But don't come askin' me for help. 
                Bm 
Cause ya know...      

              A 
It's just too little too late, 
  F#m               E
A little too wrong, 
                 Bm 
And I can't wait, 
             A                       F#m       E                                Bm
Boy you know all the right things to say (You know it's just too little too late.)      
            A 
You say you dream of my face, 
    F#m                E 
But you don't like me, 
                        Bm 
You just like the chase. 
               A                 F#m        E 
To be real, it doesn't matter anyway, (You know it's just too little too late.) 

Bm              F#m 
I can love with all of my heart baby, 
E                            D 
I know I have so much to give (I have so much to give.) 
Bm                      A 
With a player like you, I don't have a prayer, 
F#m               E 
That's the way to live, 
      Bm  A F#m E
Yeah, oh. 
    Bm         A          F#m 
It's just too little, too late. 
  E    Bm
Yeah! 

              A 
It's just too little too late, 
  F#m               E
A little too wrong, 
                 Bm 
And I can't wait, 
             A                       F#m       E                                Bm
Boy you know all the right things to say (You know it's just too little too late.)      
            A 
You say you dream of my face, 
    F#m                E 
But you don't like me, 
                        Bm 
You just like the chase. 
               A                 F#m        E 
To be real, it doesn't matter anyway, (You know it's just too little too late.) 

( Bm  A  F#m  E )
00:00 / 00:00
Outros vídeos desta música
Repetir
Outros vídeos desta música
Composição de Adam Wilson / Billy Steinberg / Brendon James / Josh Alexander / Ruth-Anne Cunningham / Tom Welham / Will South
Colaboração e revisão:
  • Vanessa Quisini
  • Leandro H.
38.183 exibições
    • ½ Tom
    • A
    • Bb
    • B
    • C
    • Db
    • D
    • Eb
    • E
    • F
    • F#
    • G
    • Ab
  • Adicionar à lista

    0 comentários

    Ver todos os comentários

    Conseguiu tocar?

    4 Tocaram 0 Ainda não

    Grave um vídeo tocando Too Little Too Late e nos envie!

    Entre para oCifra Club PRO

    Tenha acesso a benefícios exclusivos no App e no Site

    • Chega de anúncios

    • Prioridade de compra em lançamentos

    • Mais recursos no app do Afinador

    • Atendimento Prioritário

    • Descontos nos produtos Cifra Club

    • Ajude a produzir mais conteúdo

    00:00 / 00:00

    Cifra Club Pro

    Aproveite o Cifra Club com benefícios exclusivos e sem anúncios
    Cifra Club Pro
    Aproveite o Cifra Club com benefícios exclusivos e sem anúncios
    OK