Cifra Club

Ovary Stripe

Kasabian

Cifra: Principal (violão e guitarra)
Selo Cifra Club: esta cifra foi revisada para atender aos critérios oficiais da nossa Equipe de Qualidade.
tom: D
Tuning: Standard


Part 1 (mainly synth. Synths tabbed for guitar)

Repeat until guitar comes in

e|--3--2--0--2--3--3--2--0--2--3--3--2--0--2--3--3--2--0--2--3---|
B|---------------------------------------------------------------|
G|---------------------------------------------------------------|
D|---------------------------------------------------------------|
A|---------------------------------------------------------------|
E|---------------------------------------------------------------|


Part 2


e|---3p2p0-3p2p0-3p2p0---0---3p2p0-3p2p0-3p2p0---0---3p2p0-3p2p0-3p2p0---0-|
B|---------------------3-----------------------3-----------------------3---|
G|-------------------------------------------------------------------------|
D|-------------------------------------------------------------------------|
A|-------------------------------------------------------------------------|
E|-------------------------------------------------------------------------|

e|---3p2p0-3p2p0-3p2p0---0-----------3p2p0---10p9p7-(7)-(7)-(7)---------|
B|---------------------3------3p2p0-------------------------------------|
G|----------------------------------------------------------------------|
D|----------------------------------------------------------------------|
A|----------------------------------------------------------------------|
E|----------------------------------------------------------------------|

e|---3p2p0-3p2p0-3p2p0---0---3p2p0-3p2p0-3p2p0---0-----------------------|
B|---------------------3-----------------------3-------------------------|
G|-----------------------------------------------------------------------|
D|-----------------------------------------------------------------------|
A|-----------------------------------------------------5-5-5-5-5-5-5-5---|
E|-----------------------------------------------------3-3-3-3-3-3-3-3---|


Part 3

Repeat x3

e|---3p2p0-3p2p0-3p2p0---0---3p2p0-3p2p0-3p2p0---0-------3p2p0---10p9p7---|
B|---------------------3-----------------------3----3p2p0-----------------|
G|------------------------------------------------------------------------|
D|------------------------------------------------------------------------|
A|------------------------------------------------------------------------|
E|------------------------------------------------------------------------|


Part 4


e|---3-2-0-2-5-3-2--0----------2-3-2-0-3-2-5-2---|
B|-----------------------------------------------|
G|-----------------------------------------------|
D|-----------------------------------------------|
A|-----------------------------------------------|
E|-----------------------------------------------|


Part 5


e|---3p2p0-3p2p0-3p2p0---0---3p2p0-3p2p0-3p2p0---0-------3p2p0---10p9p7---|
B|---------------------3-----------------------3----3p2p0-----------------|
G|------------------------------------------------------------------------|
D|------------------------------------------------------------------------|
A|------------------------------------------------------------------------|
E|------------------------------------------------------------------------|


Part 6 (Repeat until end of song. Synths tabbed for guitar)


e|---5-3-5-3-2-3---0--|
B|---------------3----|
G|--------------------|
D|--------------------|
A|--------------------|
E|--------------------|
Outros vídeos desta música
    301 exibições
      • ½ Tom
      • A
      • Bb
      • B
      • C
      • Db
      • D
      • Eb
      • E
      • F
      • F#
      • G
      • Ab
    • Adicionar à lista

    Afinação da cifra

    Afinador online

      0 comentários

      Ver todos os comentários

      Conseguiu tocar?

      0Tocaram0Ainda não

      Grave um vídeo tocando Ovary Stripe e nos envie!

      Toque também

      1. Imagem do artista OasisWonderwall Oasis
      2. Imagem do artista Franz FerdinandTake Me Out Franz Ferdinand
      3. Imagem do artista Kaiser ChiefsRuby Kaiser Chiefs
      4. Imagem do artista Miles KaneCome Closer Miles Kane

      Entre para o Cifra Club PRO

      Tenha acesso a benefícios exclusivos no App e no Site

      • Chega de anúncios

      • Badges exclusivas

      • Mais recursos no app do Afinador

      • Atendimento Prioritário

      • Aumente seu limite de lista

      • Ajude a produzir mais conteúdo

      Cifra Club Pro

      Aproveite o Cifra Club com benefícios exclusivos e sem anúncios
      Cifra Club Pro
      Aproveite o Cifra Club com benefícios exclusivos e sem anúncios
      Ops (: Contenido disponible sólo en portugués.
      OK