Cifra Club

Kids In America

Kim Wilde

Cifra (violão e guitarra)
Selo Cifra Club: esta cifra foi revisada para atender aos critérios oficiais da nossa Equipe de Qualidade.
tom: E
Intro: synth!

Verse riff:
E|-----------------------------------|
B|-----------------------------------|
G|-----------------------------------|
D|-4-| etc----etc----etc----etc----etc-|
A|-2------7------5------7------2-----|
E|--------5------3------5------0-----|

Chorus:
E|-0------2------3------5------3-----5------3------5-----|
B|-2------4------5------7------5-----7------5------7-----|
G|---| etc----etc----etc----etc----etc---etc----etc----etc-|
D|-------------------------------------------------------|
A|-------------------------------------------------------|
E|-------------------------------------------------------|
Verse then chorus
“Na,na,na....”:
E|------------5--2--------------------------------5--2--------------------------------|
B|-2-2--4--5--7--4---4--7--5--4--2-2---2-2--4--5--7--4---4--7--5--4--2--5--4--2----0--|
G|-4-4--6--7---------6--9--7--6--4-4---4-4--6--7---------6--9--7--6--4--7--6--4----2--|
D|------------------------------------------------------------------------------------|
A|------------------------------------------------------------------------------------|
E|------------------------------------------------------------------------------------|
Verse then chorus then “na na na”
Outro:
E|--------3------5------4------| End
B|-2------5------7------6------|
G|-4--------| etc----etc----etc--|
D|---| etc-----------------------|
A|-----------------------------|
E|-----------------------------|
Outros vídeos desta música
    30 exibições
      • ½ Tom
      • A
      • Bb
      • B
      • C
      • Db
      • D
      • Eb
      • E
      • F
      • F#
      • G
      • Ab
    • Adicionar à lista

    Afinação da cifra

    Afinador online

      0 comentários

      Ver todos os comentários

      Entre para o Cifra Club PRO

      Tenha acesso a benefícios exclusivos no App e no Site

      • Chega de anúncios

      • Badges exclusivas

      • Mais recursos no app do Afinador

      • Atendimento Prioritário

      • Aumente seu limite de lista

      • Ajude a produzir mais conteúdo

      Cifra Club Pro

      Aproveite o Cifra Club com benefícios exclusivos e sem anúncios
      Cifra Club Pro
      Aproveite o Cifra Club com benefícios exclusivos e sem anúncios
      Ops (: Contenido disponible sólo en portugués.
      OK