Cifra Club

Aprenda

Sindrom

The Kovenant

Tab de baixo: Principal
KEY:x=dead note
    ~=vibrato
    /=slide up to note
    \=slide down to note

Intro
G|------------------|(0:00-0:14)
D|------------------|
A|------------------|
D|---Synth--Drums---|

1St Riff
G|------------------------------------------|(x2)
D|----------------------------------------8-|
A|------------------------------------------|
D|-5--5-xxxxx-5--5-33----5--5-xxxxx-5--5-8--|

Main Riff         (x2),(x1 at end)             (x2)
G|--------------------------------|--------------|
D|--------------------------------|--------------|
A|--------------------------------|--------------|
D|-5-55-35--55/8---5-55-35-43210~-|-3-33-13-33/6-|

Chorus                     Then:
G|-----------------------|------------------------|
D|-----------------------|------------------------|
A|-----------------------|------------------------|
D|-5~---3~---1~---30~----|-5xx--3xxxx-1xx-3xx-0~--|

synth and drums (1:14-1:28)
1st riff x2
Main riff x1
Chorus x1

Interlude (part 1)
G|--------------------|(x4)
D|--------------------|
A|----3---1---3---4---|
D|-553-553-553-553----|

Interlude (Part 2) when he sings "god is nothing more than me!"
G|-------------------|
D|-------------------|(x4)
A|-------------------|
D|-5xx5xxxxx5xx5x88--|

Solo
G|---------------------------------|---------------------------------------|
D|---------------------------------|------5-5-------3-3-------1-1----------|
A|---------------------------------|---------------------------------------|
D|5~---xxx3~---xxx1~---xxx0~---000-|-555xx-5-5-333xx-3-3-111xx-1-1--0~-0000|

Synth and Drums,
1st Riff x6
chorus x1

End
G|-----------|
D|-----------|
A|-----------|
D|-5--55-35--|

Compositor não encontrado.
108 exibições

0 comentários

Ver todos os comentários

Conseguiu tocar?

0 Tocaram 0 Ainda não

Grave um vídeo tocando Sindrom e nos envie!

00:00 / 00:00
Outros vídeos desta música
Repetir Qualidade Automático
Outros vídeos desta música
00:00 / 00:00
Automático

Cifra Club Pro

Aproveite o Cifra Club com benefícios exclusivos e sem anúncios
Cifra Club Pro
Aproveite o Cifra Club com benefícios exclusivos e sem anúncios
OK