Cifra Club

Aprenda

Ascolta il tuo cuore

Laura Pausini

Cifra: Principal (violão e guitarra)
tom: F
(intro) Dm Gm C Gm A7 Dm Gm Dm/Bb Am

E |-1----1--0---1-|----1-0--0~|---0-------|---1-0---1-|
B |-3---3-----3---|--3----3---|--1--3-1-3-|--3------3-|
G |-2--2----------|-2---------|-0---------|-3-------2-|
D |-0-------------|-----------|-----------|---------0-|
A |---------------|-----------|-----------|-----------|
E |---------------|-----------|-----------|-----------|

E |-1----1--0---1-|----1-0--0~|-3/5-3-|----------|
B |-3---3-----3---|--3----3---|-------|-5p3-1-3--|
G |-2--2----------|-2---------|-------|--------5-|
D |-0-------------|-----------|-------|----------|
A |---------------|-----------|-------|----------|
E |---------------|-----------|-------|----------|

Dm                Gm
Ehi! Adesso come stai?
                 C
tradita da una storia finita
Gm                             Dm
edi fronte a te l'ennesima salita.
                 Gm
Un può ti senti sola,
                C
nessuno che ti possa ascoltare,
Dm
che divida con te i tuoi guai.
Gm   Am              Bb
Mai! Tu non mollare mai!
            Dm
Rimani come sei,
                  Gm
insegui il tuo destino,
                   C
perchè tutto il dolore che hai dentro
Gm                                   Dm
non potrà mai cancellare il tuo cammino,
             Gm
allora scoprirai
                       C
che la storia di ogni nostro minuto
Dm
appartiene soltanto a noi.
Gm Am             Bb
Ma se ancora resterai,
       C
persa senza una ragione
      Bb
in un mare di perchè
       F                  C
dentro te ascolta il tuo cuore
          Gm                  Dm
e nell'silenzio troverai le parole
          C                Bb         F
Chiudi gli occhi e poi tu lasciati andare,
            D#                                 Dm Gm
prova a arrivare dentro il pianeta del cuore.
Dm            Gm
È difficile capire
                 C
qual è la cosa giusta da fare
       Gm                     Dm
se ti batte nella testa un'emozione.
                   Gm
l'orgoglio che ti piglia,
                     C
le notti in cui li rimorso ti sveglia
         Dm
per la paura di sbagliare.
Gm Am           Bb
Ma se ti ritroverai
        C
senza stelle da seguire
   Gm
tu non rinunciare mai.
      F                   C
Credi te! Ascolta il tuo cuore!
              Gm                   F
fai quell'che dice anche se fa soffrire
          C                 Bb         F
chiudi gli occhi e puoi tu lasciati andare,
           D#                   Bb
prova a volare oltre questo dolore.
              C    F                C
No ti ingannerai se ascolta il tuo cuore,
         Gm                    Dm
apri le braccia quasi fino a tocare
      C           F             C
ogni mano, ogni speranza, ogni sogno che vuoi
        Gm        Bb            C          F
perché puoi ti porterà fino al cuore di ognuno di noi.

   C    F    C           Gm          Dm
E |---3-5-3-|-3-1-0-3-3-|----3-5-6-5----|
B |--6------|-----------|-3-3-----------|
G |-5-------|-----------|---------------|
D |---------|-----------|---------------|
A |---------|-----------|---------------|
E |---------|-----------|---------------|
      C             Bb        F
Ogni volta, che non sai cosa fare,
           D#                              Dm Gm C Gm
prova a volare dentro il pianeta del cuore.

( tu tu prova a volare )*
( do do do dov'è il pianeta del cuore )
( dentro il pianeta del cuore )

(* fica repetindo Dm Gm C Gm até o fim)
Composição de Laura Pausini
Colaboração e revisão:
  • Francisco Filho
  • Ana Gualda
  • abson silva
22.815 exibições
    • ½ Tom
    • A
    • Bb
    • B
    • C
    • Db
    • D
    • Eb
    • E
    • F
    • F#
    • G
    • Ab
  • Adicionar à lista

    0 comentários

    Ver todos os comentários

    Conseguiu tocar?

    0 Tocaram 0 Ainda não

    Grave um vídeo tocando Ascolta il tuo cuore e nos envie!

    00:00 / 00:00
    outros vídeos desta música
    repetir qualidade Automático
    Outros vídeos desta música
    00:00 / 00:00
    Automático

    Cifra Club Pro

    Aproveite o Cifra Club com benefícios exclusivos e sem anúncios
    Cifra Club Pro
    Aproveite o Cifra Club com benefícios exclusivos e sem anúncios
    OK