Cifra Club

Aprenda

Walk Away

Ledbetter

Cifra: Principal (violão e guitarra)
Já pensou em usar uma coleção de roupas do Cifra Club? Responda as perguntas abaixo e nos ajude nessa missão! →
tom: D
Parte 1:

Repetir (4x)

D5(9) A5(9) Em G5

 DS(9) A5(9) E-----------------------|
            B-----5-----------------|
            G----4------------------|
            D--2--------------------|
            B-----------------------|
            E-----------------------|

Ponte:

(4x)

D5(9) A5(9) Em G5

Parte 1:

Repetir (2x)

D5(9) A5(9) Em G5

 DS(9) A5(9) E-----------------------|
            B-----5-----------------|
            G----4------------------|
            D--2--------------------|
            B-----------------------|
            E-----------------------|

Refrão:

E|-------------------------------------------------------------------------------------------------|
B|-------------------------------------------------------------------------------------------------|
G|-------------------------------------------------------------------------------------------------|
D|--7--5--3--5--7--10-12-10-7----------------------------------------------------------------------|
A|--7--5--3--5--7--10-12-10-7----------------------------------------------------------------------|
E|--5--3--1--3--5--8--10-8--5----------------------------------------------------------------------|

Parte 1:

(2x)

D5(9) A5(9) Em G5

 DS(9) A5(9) E-----------------------|
            B-----5-----------------|
            G----4------------------|
            D--2--------------------|
            B-----------------------|
            E-----------------------|

Ponte:

(4x)

D5(9) A5(9) Em G5

Parte 1:

(2x)

D5(9) A5(9) Em G5

 DS(9) A5(9) E-----------------------|
            B-----5-----------------|
            G----4------------------|
            D--2--------------------|
            B-----------------------|
            E-----------------------|

Refrão:

E|-------------------------------------------------------------------------------------------------|
B|-------------------------------------------------------------------------------------------------|
G|-------------------------------------------------------------------------------------------------|
D|--7--5--3--5--7--10-12-10-7----------------------------------------------------------------------|
A|--7--5--3--5--7--10-12-10-7----------------------------------------------------------------------|
E|--5--3--1--3--5--8--10-8--5----------------------------------------------------------------------|

Parte 1:

(4x)

D5(9) A5(9) Em G5

 DS(9) A5(9) E-----------------------|
            B-----5-----------------|
            G----4------------------|
            D--2--------------------|
            B-----------------------|
            E-----------------------|
Composição de Ledbetter
Colaboração e revisão:
  • Guilherme Santos
11 exibições
    • ½ Tom
    • A
    • Bb
    • B
    • C
    • Db
    • D
    • Eb
    • E
    • F
    • F#
    • G
    • Ab
  • Adicionar à lista

    0 comentários

    Ver todos os comentários

    Conseguiu tocar?

    0 Tocaram 0 Ainda não

    Grave um vídeo tocando Walk Away e nos envie!

    00:00 / 00:00
    Outros vídeos desta música
    Repetir Qualidade Automático
    Outros vídeos desta música
    00:00 / 00:00
    Automático

    Cifra Club Pro

    Aproveite o Cifra Club com benefícios exclusivos e sem anúncios
    Cifra Club Pro
    Aproveite o Cifra Club com benefícios exclusivos e sem anúncios
    OK