Cifra Club

Teuvo Maanteiden Kuningas

Leevi And The Leavings

Cifra (violão e guitarra)
Selo Cifra Club: esta cifra foi revisada para atender aos critérios oficiais da nossa Equipe de Qualidade.
tom: C
[Intro]
E|-------------------------------3---2--0------------------|
B|------3--3--3--2--0--3--0--0---------------0--3--2-------|
G|---------------------------------------------------------|
D|---------------------------------------------------------| x6
A|---------------------------------------------------------|
E|---------------------------------------------------------|

[Verse]
E|-----------------------------------------------|
B|------3-3-3-3-5-5-5-5-3-2-0---3------0-0-0-----|
G|----------------------------2-----2--------2---|
D|-----------------------------------------------|
A|-----------------------------------------------|
E|-----------------------------------------------|

E|-------------------|
B|-------------------|
G|------------2-2----|
D|------2-4-5--------| x4
A|-------------------|
E|-------------------|

[Chorus]
E|-------------------------------3---2--0------------------|
B|------3--3--3--2--0--3--0--0---------------0--3--2-------|
G|---------------------------------------------------------|
D|---------------------------------------------------------| x4
A|---------------------------------------------------------|
E|---------------------------------------------------------|

[Verse]
E|----------------------------------------------|
B|------3-3-3-3-5-5-5-5-3-2-0---3------0-0-0----|
G|----------------------------2-----2--------2--|
D|----------------------------------------------|
A|----------------------------------------------|
E|----------------------------------------------|

E|------------------|
B|------------------|
G|------------2-2---|
D|------2-4-5-------| x2
A|------------------|
E|------------------|

[Chorus]
E|-------------------------------3---2--0------------------|
B|------3--3--3--2--0--3--0--0---------------0--3--2-------|
G|---------------------------------------------------------|
D|---------------------------------------------------------| x4
A|---------------------------------------------------------|
E|---------------------------------------------------------|

  "Rallikuskiksi pääsystä..........."
E|-----------------------------------------------|
B|-----------------------------------------------|
G|-----------------------------------------------|
D|----------------------------------5-5-5-5-3-2--|
A|------5-7-8-8-8-8-7-5-3-3-5-3-2-0--------------|
E|-----------------------------------------------|

E|--------------------------|
B|--------------------------|
G|--------------------------|
D|--------2-----------------| x2
A|------5---5-3-5-3-2-------|
E|--------------------3-3---|

[Chorus]
E|-------------------------------3---2--0------------------|
B|------3--3--3--2--0--3--0--0---------------0--3--2-------|
G|---------------------------------------------------------|
D|---------------------------------------------------------| x4
A|---------------------------------------------------------|
E|---------------------------------------------------------|

[Verse]
E|---------------------------------------------|
B|------3-3-3-3-5-5-5-5-3-2-0---3------0-0-0---|
G|----------------------------2-----2--------2-|
D|---------------------------------------------|
A|---------------------------------------------|
E|---------------------------------------------|

E|------------------|
B|------------------|
G|------------2-2---|
D|------2-4-5-------| x2
A|------------------|
E|------------------|

[Chorus]
E|-------------------------------3---2--0------------|
B|------3--3--3--2--0--3--0--0---------------0--3--2-|
G|---------------------------------------------------|
D|---------------------------------------------------| x2
A|---------------------------------------------------|
E|---------------------------------------------------|

E|----------------------------------|
B|------7-0-7-5----5-3-5-3--7-0---0-|
G|------------------------------2---|
D|----------------------------------|
A|----------------------------------|
E|----------------------------------|

[Chorus]
E|-------------------------------3---2--0-------------|
B|------3--3--3--2--0--3--0--0---------------0--3--2--|
G|----------------------------------------------------|
D|----------------------------------------------------| x2
A|----------------------------------------------------|
E|----------------------------------------------------|

E|-----------------------------------|
B|------7-0-7-5----5-3-5-3--7-0---0--|
G|------------------------------2----|
D|-----------------------------------|
A|-----------------------------------|
E|-----------------------------------|

[Chorus]
E|-------------------------------3---2--0----------------|
B|------3--3--3--2--0--3--0--0---------------0--3--2-----|
G|-------------------------------------------------------|
D|-------------------------------------------------------| x10
A|-------------------------------------------------------|
E|-------------------------------------------------------|
Outros vídeos desta música
    0 exibições
      • ½ Tom
      • A
      • Bb
      • B
      • C
      • Db
      • D
      • Eb
      • E
      • F
      • F#
      • G
      • Ab
    • Adicionar à lista

    Afinação da cifra

    Afinador online

      0 comentários

      Ver todos os comentários

      Conseguiu tocar?

      0Tocaram0Ainda não

      Grave um vídeo tocando Teuvo Maanteiden Kuningas e nos envie!

      Toque também

      1. Imagem do artista Eppu NormaaliJee Jee Eppu Normaali
      2. Imagem do artista Miljoonasade506 Ikkunaa Miljoonasade
      3. Imagem do artista PopedaKormus Popeda
      4. Imagem do artista Juice LeskinenAjan Henki Juice Leskinen

      Entre para o Cifra Club PRO

      Tenha acesso a benefícios exclusivos no App e no Site

      • Chega de anúncios

      • Badges exclusivas

      • Mais recursos no app do Afinador

      • Atendimento Prioritário

      • Aumente seu limite de lista

      • Ajude a produzir mais conteúdo

      Cifra Club Pro

      Aproveite o Cifra Club com benefícios exclusivos e sem anúncios
      Cifra Club Pro
      Aproveite o Cifra Club com benefícios exclusivos e sem anúncios
      Ops (: Contenido disponible sólo en portugués.
      OK