Cifra Club

Reino De La Verdad

La Ley

Cifra: Principal (violão e guitarra)
Selo Cifra Club: esta cifra foi revisada para atender aos critérios oficiais da nossa Equipe de Qualidade.
tom: E
E|-----------------|----------------|
B|-----------------|----------------|
G|-----------------|----------------| (x4)
D|-----------------|----------------|
A|-0-0-0-0-0-0-0-3-|-3-3------------|
E|-----------------|-----3--3-3-3-3-|

(Gtr 2) 
(Fade in)
E|-----------------|----------------|
B|-7-7-7-7-7-7-7-7-|-7-7-7--7-7-7-7-|
G|-----------------|----------------| (x2)
D|-----------------|----------------|
A|-----------------|----------------|
E|-----------------|----------------|

E|-----------------|----------------|
B|-7-7-7-7-7-7-7-7-|-7-7-7--7-7-7-7-|
G|-----------------|-9-9-8--8-8-8-8-| (x2)
D|-----------------|----------------|
A|-----------------|----------------|
E|-----------------|----------------|

[Verse 1]
(Gtr 1)
E|-----------------|----------------|
B|-----------------|----------------|
G|-----------------|----------------| (x8)
D|-----------------|----------------|
A|---------------3-|-3-3------------|
E|-0-0-0-0-0-0-0---|-----3--3-3-3-3-|

(Gtr 2)
Pm..................................
E|-----------------|----------------|
B|-9-9-9-9-9-9-9-4-|-4-4-7--7-7-7-7-|
G|-8-8-8-8-8-8-8-4-|-4-4-6--6-6-6-6-| (x8)
D|-6-6-6-6-6-6-6-2-|-2-2-4--4-4-4-4-|
A|-----------------|----------------|
E|-----------------|----------------|

[Pre-Chorus]
(Gtr 1)
E|-----------------|----------------|
B|-----------------|----------------|
G|-----------------|----------------| (x2)
D|-----------------|----------------|
A|---------------3-|-3-3------------|
E|-0-0-0-0-0-0-0---|-----3--3-3-3-3-|

(Gtr 2)
Pm...................................
e|-----------------|-----------------|
B|---4-------4-----|-----------7-----|
G|-----5-------5---|---4---4-----6---| (x2)
D|-6-----6-6-----6-|-2---2---4-----4-|
A|-----------------|-----------------|
E|-----------------|-----------------|

[Chorus 1]
(Gtr 2)
e|-----------------|-----------------|
B|-4-4-x-4-4-4-x-x-|-5-5-x-7-7-7-x-x-|
G|-4-4-x-4-4-4-x-x-|-4-4-x-6-6-6-x-x-| (x4)
D|-2-2-x-2-2-2-x-x-|-2-2-x-4-4-4-x-x-|
A|-----------------|-----------------|
E|-----------------|-----------------|

[Solo]
(Gtr 1)
E|-----------------|----------------|
B|-----------------|----------------|
G|-----------------|----------------| (x4)
D|-----------------|----------------|
A|---------------3-|-3-3------------|
E|-0-0-0-0-0-0-0---|-----3--3-3-3-3-|

(Gtr 2)
E|-----------------------|-----------------------|-----------------------|-----------------------|
B|-----------------------| 12-12-12-12-12-12-12-12|11-11-11-11-11-11-11-11|14-14-14-14-14-14-14-14|
G|13-13-13-13-13-13-13-13|-----------------------|-----------------------|-----------------------|
D|-----------------------|-----------------------|-----------------------|-----------------------|
A|-----------------------|-----------------------|-----------------------|-----------------------|
E|-----------------------|-----------------------|-----------------------|-----------------------|

E|-----------------------|-----------------------|-----------------------|
B|-----------------------| 15-15-15-15-15-15-15-15|13-13-13-13-13-13-13-13|
G|13-13-13-13-13-13-13-13|-----------------------|-----------------------|
D|-----------------------|-----------------------|-----------------------|
A|-----------------------|-----------------------|-----------------------|
E|-----------------------|-----------------------|-----------------------|

e|--------------------------------|
B|15b-15b-15b-15b-15b-15b-15b-15b~|
G|--------------------------------|
D|--------------------------------|
A|--------------------------------|
E|--------------------------------|

[Verse 2]
(Gtr 1)
E|-0---0-|---|
B|-0---0-|---|
G|-0---0-|---| (x2)
D|-2-x-2-|---|
A|-2-x-2-|---|
E|-0---0-|---|

E|-0---0-|-2-2---2--2-2-2-|
B|-0---0-|-4-4---2--2-2-2-|
G|-0---0-|-4-4---3--3-3-3-| (x2)
D|-2-x-2-|-4-4-x-4--4-4-4-|
A|-2-x-2-|-2-2-x-4--4-4-4-|
E|-0---0-|-------2--2-2-2-|

(Gtr 2)
Pm..................................
E|-----------------|----------------|
B|-9-9-9-9-9-9-9-4-|-4-4-7--7-7-7-7-|
G|-8-8-8-8-8-8-8-4-|-4-4-6--6-6-6-6-| (x4)
D|-6-6-6-6-6-6-6-2-|-2-2-4--4-4-4-4-|
A|-----------------|----------------|
E|-----------------|----------------|

[Pre-Chorus 2]
(Gtr 1)
E|-----------------|----------------|
B|-----------------|----------------|
G|-----------------|----------------| (x2)
D|-----------------|----------------|
A|---------------3-|-3-3------------|
E|-0-0-0-0-0-0-0---|-----3--3-3-3-3-|

E|----------------|
B|----------------|
G|----------------|
D|----------------|
A|-4-4-4h6-6-6-6--|
E|-4-4-4h6-6-6-6--|

(Gtr 2)
Pm...................................
e|-----------------|-----------------|
B|---4-------4-----|-----------7-----|
G|-----5-------5---|---4---4-----6---| (x2)
D|-6-----6-6-----6-|-2---2---4-----4-|
A|-----------------|-----------------|
E|-----------------|-----------------|

e|-4-4-x-4-4-4-x-|
B|-4-4-x-4-4-4-x-|
G|-4-4-x-4-4-4-x-|
D|-6-6-x-6-6-6-x-|
A|-6-6-x-6-6-6-x-|
E|-4-4-x-4-4-4-x-|

[Chorus 2]
(Gtr 2)
e|-----------------|-----------------|
B|-4-4-x-4-4-4-x-x-|-5-5-x-7-7-7-x-x-|
G|-4-4-x-4-4-4-x-x-|-4-4-x-6-6-6-x-x-| (x8)
D|-2-2-x-2-2-2-x-x-|-2-2-x-4-4-4-x-x-|
A|-----------------|-----------------|
E|-----------------|-----------------|

[Bridge]
(Gtr 1)
E|-----------------|----------------|
B|-----------------|----------------|
G|-----------------|----------------| (x2)
D|-----------------|----------------|
A|---------------3-|-3-3------------|
E|-0-0-0-0-0-0-0---|-----3--3-3-3-3-|

[Outro part 1]
(Gtr 1)
E|-----------------|----------------|
B|-----------------|----------------|
G|-----------------|----------------| (x6)
D|-----------------|----------------|
A|---------------3-|-3-3------------|
E|-0-0-0-0-0-0-0---|-----3--3-3-3-3-|

(Gtr 2)
Pm..................................
E|-----------------|----------------|
B|-9-9-9-9-9-9-9-5-|-5-5-7--7-7-7-7-|
G|-8-8-8-8-8-8-8-4-|-4-4-6--6-6-6-6-| (x4)
D|-6-6-6-6-6-6-6-2-|-2-2-4--4-4-4-4-|
A|-----------------|----------------|
E|-----------------|----------------|

[Outro part 2]
(Gtr 1)
E|-----------------|----------------|
B|-----------------|----------------|
G|-----------------|----------------| (x5)
D|-----------------|----------------|
A|---------------3-|-3-3------------|
E|-0-0-0-0-0-0-0---|-----3--3-3-3-3-|

(Gtr 2)
E|-----------------|----------------|
B|-7-7-7-7-7-7-7-7-|-7-7-7--7-7-7-7-|
G|-----------------|-9-9-8--8-8-8-8-| (x6)
D|-----------------|----------------|
A|-----------------|----------------|
E|-----------------|----------------|


**********************************************************************

| Pm    palm muted
| x     dead note
| h     hammer on
| b     bend
Outros vídeos desta música
    • ½ Tom
    • A
    • Bb
    • B
    • C
    • Db
    • D
    • Eb
    • E
    • F
    • F#
    • G
    • Ab
  • Adicionar à lista

Afinação da cifra

Afinador online

    0 comentários

    Ver todos os comentários

    Entre para o Cifra Club PRO

    Tenha acesso a benefícios exclusivos no App e no Site

    • Chega de anúncios

    • Mais recursos no app do Afinador

    • Atendimento Prioritário

    • Aumente seu limite de lista

    • Ajude a produzir mais conteúdo

    Cifra Club Pro

    Aproveite o Cifra Club com benefícios exclusivos e sem anúncios
    Cifra Club Pro
    Aproveite o Cifra Club com benefícios exclusivos e sem anúncios
    OK