Cifra Club

Libido

Libido

Cifra: Principal (violão e guitarra)
tom: C
[Intro] E5  G5  C5  B5

   Em         G           C             B
E|-----------------------------------------------------|
B|-----------------------------------------------------|
G|-------0-----------0------------3------------2-------|
D|-----2---2-------2---2--------2---2--------1---1-----|
A|----------------------------3------------2-----------|
E|---0-----------3-------------------------------------|

[Primeira Parte]

Em    G         C        B           Em      G  C  B    
 Nos vimos de nuevo, pensaste en volver a mí
Em    G        C        B            Em       G         
 Me tienes contigo, no sabes lo que aprendí

[Pré-Refrão]

C      B       Em      G                           
 A llorar sin lágrimas
C       B           Em      G                      
 A no creer en los sueños
C          B             Em           G     C      
 A no envolverme en tus besos, ni en tus caricias
   B                 Em    G                       
 Porque todas son mentiras

[Refrão]

C5    B5           E5       G5                     
 Y te quito las ropas
C5    B5               E5       G5                 
 Y yo entro en tu cuerpo
C5      B5        E5         G5           C5        
 Y juntando las almas, tu cuerpo y el mío
        B5       E5       G5   C5   B5              
 Se envuelven en libidoooooo

[Segunda Parte]

Em   G       C                                
 Terminó tu sueño
     B         Em     G  C  B              
 De ser la dueña de mí
Em   G         C                              
 Empieza tu infierno
      B           Em       G  C  B            
 Tu premio a lo que aprendí

[Pré-Refrão]

C      B       Em      G        
 A llorar sin lágrimas
C       B           Em      G                   
 A no creer en los sueños
C          B             Em           G     C   
 A no envolverme en tus besos, ni en tus caricias
   B                 Em    G                        
 Porque todas son mentiras

[Refrão]

C5    B5           E5       G5 
 Y te quito las ropas
C5    B5               E5       G5           
 Y yo entro en tu cuerpo
C5    B5        E5         G5           C5   
 Y juntando las almas, tu cuerpo y el mío
        B5       E5       G5   C5   B5   C5  B5  E5    
 Se envuelven en libidoooooo

[Solo]

E|------------------------------------------------------------------------|
B|-----8-10-10b-10-8-8h10-8--------------8-10-10~-10-8-10-8-----8-----11b-|
G|-7-9-----------------------7s9~~---7-9--------------------9-9---9-9-----|
D|------------------------------------------------------------------------|
A|------------------------------------------------------------------------|
E|------------------------------------------------------------------------|

E|-12~---------12~----------12~-------|
B|-----12~-12~-----12~-12~------12~---|
G|------------------------------------|
D|------------------------------------|
A|------------------------------------|
E|------------------------------------|

E|-----12~-----12~-----12~-----12~--12~---------12~---------12~------12~~-|
B|-10~-----10~-----10~-----10~----------12~-12~-----12~-12~-----12~--12~~-|
G|------------------------------------------------------------------------|
D|------------------------------------------------------------------------|
A|------------------------------------------------------------------------|
E|------------------------------------------------------------------------|

E|----------------------------------------------------------------------|
B|---8~------8~------8~---10~--8~-------8~------8~------8~---7~--8~--7~-|
G|-9~--9~--9~--9~--9~--9~----9~--9~---9~--9~--9~--9~--9~--9~------------|
D|----------------------------------------------------------------------|
A|----------------------------------------------------------------------|
E|----------------------------------------------------------------------|

E|-----------------------7~------------------------------------------|
B|---8~------8~------8~----8~--8~-----8~------8~------8~--7~-8~-7~~--|
G|-9~--9~--9~--9~--9~--9~----9~-----9~--9~--9~--9~--9~--9~-----------|
D|-------------------------------------------------------------------|
A|-------------------------------------------------------------------|
E|-------------------------------------------------------------------|

No quiero verte jamás con él

El odio en mi alma se pone de pie

Con un arma en la mano no sé que hacer

Em    G      C     Bm
Oooooooooooooooooooohhhhhh
Em    G      C     Bm
Oooooooooooooooooooohhhhhh
 C5       B5
Ooooooooooooooohhhhhhh
 C5       B5
Ooooooooooooooohhhhhhh

[Final]  E5
00:00 / 00:00
Outros vídeos desta música
Repetir
Outros vídeos desta música
Composição de Manolo Hidalgo
Colaboração e revisão:
  • Imanol Cruzado
  • Diego
9.546 exibições
    • ½ Tom
    • A
    • Bb
    • B
    • C
    • Db
    • D
    • Eb
    • E
    • F
    • F#
    • G
    • Ab
  • Adicionar à lista

    0 comentários

    Ver todos os comentários

    Conseguiu tocar?

    0 Tocaram 0 Ainda não

    Grave um vídeo tocando Libido e nos envie!

    00:00 / 00:00

    Cifra Club Pro

    Aproveite o Cifra Club com benefícios exclusivos e sem anúncios
    Cifra Club Pro
    Aproveite o Cifra Club com benefícios exclusivos e sem anúncios
    OK