Cifra Club

En Esta Habitacion

Libido

Cifra: Principal (violão e guitarra)
Tom: A
Riff "A":

    F#m      D      A      E             F#m      D      A      E
e|-----------------12v~~---14v~~-14-14-12---------------12v~~~-14-14~~\--
b|--10~---10-----10-----10---------------10~---10-----10-----------------
g|------11--11~------------------------------11--11~---------------------
D|-----------------------------------------------------------------------
A|-----------------------------------------------------------------------
E|-(0:02)----------------------------------------------------------------


    F#m      D      A      E             F#m      D      A      E
e|-----------------12v~~---14v~~-14-14-12---------------12v~~~-14-14~~\--
b|--10~---10-----10-----10---------------10~---10-----10-----------------
g|------11--11~------------------------------11--11~---------------------
D|-----------------------------------------------------------------------
A|-----------------------------------------------------------------------
E|-(0:13)----------------------------------------------------------------


(0:24)

   F#m     D   A   E
  Tanto Tanto Tanto,
    F#m         D       A   E
  Tiempo al Tiempo oh oh
   F#m     D      A  E
  Tanto Tanto Tanto,
    F#m   D   A  E
  Tiempo...

(0:46)

F#m             D       A      E
  Estoy sintiendome solo, en este corazón
F#m        D        A  E
    Silencios de odio
F#m           D            A       E
  Estoy volviendo yo a verte, en esta solución
F#m       D         A   E
    Momentos de agovio

(1:07)  (con Riff A)

   F#m     D     A  E
  Tanto Tanto Tanto,
    F#m   D  A   E
  Tiempo...

(1:17)

F#m            D           A      E
  Estoy cayendo en tu mente, en toda tu pasión
F#m         D         A  E
  En esta tela de araña
F#m           D       A         E          F#m
  Estoy rozando tu vientre, en mi imaginación
          D       A    E
       Deseos de hombre

(1:39)

F#m      D      A           E
  Recuerdo tu nombre en esta habitación
F#m         D    A     E
  Tus labios tus besos   ahhahh
F#m      D      A           E
  Recuerdo tu nombre en esta habitación
F#m         D     A    E
  Tu cuerpo tu anhelo

INSTRUMENTAL (2:00)
==========

    F#m      D      A      E             F#m      D      A      E
e|-----------------12v~~---14v~~-14-14-12---------------12v~~~-14-14~~\--
b|--10~---10-----10-----10---------------10~---10-----10-----------------
g|------11--11~------------------------------11--11~---------------------
D|-----------------------------------------------------------------------
A|-----------------------------------------------------------------------
E|-----------------------------------------------------------------------

    F#m      D      A      E             F#m      D      A      E
e|-----------------12v~~---14v~~-14-14-12---------------12v~~~-14-14~~\--
b|--10~---10-----10-----10---------------10~---10-----10-----------------
g|------11--11~------------------------------11--11~---------------------
D|-----------------------------------------------------------------------
A|-----------------------------------------------------------------------
E|-----------------------------------------------------------------------


   B
e|------7--------7br^----
b|-------7-7br^----------
g|-----------------------
D|-----------------------
A|-----------------------
E|(2:22)-----------------


SOLO: (2:27)
===========

       F#m    D    A     E     F#m            D          A         E     F#m
e|---------------------------------------------------------------------------
b|---------------------------------------------------------------10----------
g|----------------------------------br-br-br-------------9---9h11--11///11///
D|-9br^--9-7-7---7-------------7-9-9--9--9--7-7-7---7---9--11----------------
A|----------9-9~~-9-7-7-7h9---9--------------9---9-9-9-----------------------
E|-----------------9-9-------------------------------------------------------

    D       A       E         F#m          D        A      E            F#m
e|---------------------------------------------------------------------------
b|--------------------------------7---7br------------------------------------
g|-11///9br--------------------6br--9br------------------------9--11h9--11~~-
D|----------7-9-9br-7-7-7---7-------------9b^-9-7--9h7--7--9/11-11-----11----
A|-------------------9---9-9-9-------------------------9---------------------
E|-(2:40)--------------------------------------------------------------------


(2:49)

F#m               (sin acordes)
  Recuerdo (recuerdo)... en esta habitación
F#m         D       A    E
  Tus labios tus besos  aahaaah
F#m      D        A      E
  Recuerdo tu nombre en esta habitación
F#m       D       A    E
  Tu cuerpo tu anhelo

(3:10)

   F#m     D   A   E
  Tanto Tanto Tanto,
    F#m         D       A   E
  Tiempo al Tiempo oh oh
   F#m     D   A   E
  Tanto Tanto Tanto,
    F#m   D A   E
  Tiempo...

(3:31)  [Con riff A]

   F#m      D   A
  Tanto Tanto Tanto,
        E            F#m  D A  E
  En esta habitación
   F#m      D  A
  Tanto Tanto Tanto,
        E            F#m  D A  E
  En esta habitación

Final (3:52)

   F#m          D      A      E
e|----------------------------12~----12~--
b|-----10---12--10----------10------10----
g|--/11---11------11br11br----------------
D|----------------------------------------
A|----------------------------------------
E|----------------------------------------

   F#m          D      A      E
e|----------------------------12~----12~--
b|-----10---12--10-10------10-------10----
g|--/11---11------------------------------
D|----------------------------------------
A|----------------------------------------
E|----------------------------------------

   F#m          D        A        E      F#m     D    A   (Fade out)
e|---------------------------------------------------
b|-----10---12--10-----------------------------------
g|--/11---11------11br11br--9------------------------
D|---------------------------11-9h11-9-7-9-9h7-7-----
A|-----------------------------------------------9---
E|---------------------------------------------------
exibições 8.961
Acordes para:
    Composição: Jeffry Fischman Colaboração e revisão:
    • Diego

    0 comentários

    mostrar mais comentários

    Conseguiu tocar?

    1 tocaram 0 ainda não

    Grave um vídeo tocando En Esta Habitacion e mande pra gente!

    00:00 / 00:00
    outros vídeos desta música
    repetir qualidade Automático
    Outros vídeos desta música
    00:00 / 00:00
    Automático
    OK