Cifra Club

Stay

Lisa Loeb

Cifra: Versão 4 (violão e guitarra)
Selo Cifra Club: esta cifra foi revisada para atender aos critérios oficiais da nossa Equipe de Qualidade.
tom: G
Tuning Standard

Intro:
Part 1
E|---------11--|     |-----------6-----|
B|-------------|     |------6----------|
G|-----10------|     |----6---6--------|
D|--11---------|     |--8--------------|
A|-------------|     |-----------------|
E|-------------|      |----------------|
            you say                  i only hear what i want to.


Part 2a
   [D#m7-----]       [Fm7------] [F#---------------------------------------------|
E|-------------------------------------------------------------------------------|
B|-----------7-----------------9-----------11x--11--------------| eleven po 2----|
G|-----------6-----------------8-----------11x--11-------------------------------|
D|----8----------------10------------------11x--11-------------------------------|
A|--6------------6¡X6s8-------------8-8s9----------------------------------------|
E|-------------------------------------------------------------------------------|


Part 1
E|---------11--|     |-----------6-----|
B|-------------|     |------6----------|
G|-----10------|     |----6---6--------|
D|--11---------|     |--8--------------|
A|-------------|     |-----------------|
E|-------------|      |----------------|
             you say                  i talk so all the time so.

Part 2a
   [D#m7-----]       [Fm7------] [F#---------------------------------|
E|-------------------------------------------------------------------|
B|-----------7-----------------9-----------11x--11-------------------|
G|-----------6-----------------8-----------11x--11-------------------|
D|----8----------------10------------------11x--11-------------------|
A|--6------------6¡X6s8-------------8-8s9----------------------------|
E|-------------------------------------------------------------------|


Verse 1
Part 1
   [D#cm7-]     [C#----------------------|
E|---------------------------------------|
B|-------7-------6--6x-6-----------------|
G|-------6-------6--6x-6-----------------|
D|----8----------6--6x-6-----------------|
A|--6---------4--------------------------|
E|---------------------------------------|
and i thought what i felt was simple,
and i thought that i don't belong,
and now       that i am leaving,
now i know that i did something wrong


Part 2
   [F#---------------] [F#m7--------------|
E|----------------------------------------|
B|--11-----------------10----down---------|
G|--11-light strumming-11---stroke--------|
D|--11-----------------11-----------------|
A|---9------------------9-----------------|
E|----------------------------------------|
cause i missed you.     yeah


Part 1
   [D#cm7-]     [C#-----------------------|
E|----------------------------------------|
B|-------7-------6--6x-6------------------|
G|-------6-------6--6x-6------------------| 2x
D|----8----------6--6x-6------------------|
A|--6---------4---------------------------|
E|----------------------------------------|

       i missed you.

Intro:
Part 1
E|---------11--|     |-----------6-----|
B|-------------|     |------6----------|
G|-----10------|     |----6---6--------|
D|--11---------|     |--8--------------|
A|-------------|     |-----------------|
E|-------------|      |----------------|
            and you say            i only hear what i want to:

Part 2b
   [D#m7-----]       [Fm7------] [F#--------------------------------------------------|
E|------------------------------------------------------------------------------------|
B|-----------7------------------------------9------------------11x--11----------------|
G|-----------6------------------------------8------------------11x--11¡Xstrum-lang----|
D|----8-----------------------------10-------------------------11x--11----------------|
A|--6-------------------------6¡X6s8--------------------8-8s9-------------------------|
E|------------------------------------------------------------------------------------|
    i don't listen hard,      i don't pay attention       to the distance that you're 
or to anyone, anywhere,

   [D#m7-----]       [Fm7------] [F#--------------------------------------------------|
E|------------------------------------------------------------------------------------|
B|-----------7------------------------------9------------------11x--11----------------|
G|-----------6------------------------------8------------------11x--11¡Xstrum-lang----|
D|----8-----------------------------10-------------------------11x--11----------------|
A|--6-------------------------6¡X6s8--------------------8-8s9-------------------------|
E|------------------------------------------------------------------------------------|
i don't understand              if you really care,      i'm only hearing negative: no, no, no.

Verse 2
Part 1
   [D#cm7-]     [C#--------------------------------------|
E|-------------------------------------------------------|
B|----7-------6¡X-6-6-(7-6)---------| „² ung 7-6---------|
G|----6-------6--6-6-------------------------------------|
D|----8-------6--6-6-------------------------------------|
A|--6---------4------------------------------------------|
E|-------------------------------------------------------|
 n single plucking pwedeng strum n lng. ito po ung riff, ilapat nu n lng po dun s chords 
isinulat q s bba, o kaya light strumming n lng.

     D#cm7              C#                      D#cm7
so i turned the radio on, i turned the radio up,
                C#
     D#cm7                 C#
the lover's in love, and the other's run away,
     D#cm7              C#
the lover is crying 'cause the other won't stay.
 D#cm7             C#                           D#cm7
some of us hover when we weep for the other who was
                            C#
dying since the day they were born.
                D#cm7
well, this is not that:
 C#                             D#cm7       C#
i think that i'm throwing, but i'm thrown.


Verse 2: part 2
(Mbilis n po ung strumming s part n 2)
     D#cm7                            C#
and i thought I'd live forever, but now i'm not so sure.
          D#cm7
you try to tell me that i'm clever,

      C#                       [D#m7---------Fm7--------F#]Part 2a po ang gawing nyong tab d2.
but that won't take me anyhow,     or anywhere with you.


Verse 3(mbgal lng po strum prang verse 2)
  D#cm7           C#
you said that i was naive,
   D#cm7            C#
and i thought that i was strong.
   D#cm7            C#
i thought, "hey, i can leave, i can leave."
    D#cm7            C#                   F#            F#m
but now i know that i was wrong, 'cause i missed you.
       D#cm7  C#,  D#cm7  C#
yeah, miss you


(mbilis po ult s part n 2ung strumming)
                    D#cm7                            C#
you said, "i caught you 'cause i want you and one day i'll let you go."
             D#cm7                   C#
"you try to give away a keeper, or keep me 'cause you know you're just
   [D#m7-----]       [Fm7------] [F#---------------------------------|
E|-------------------------------------------------------------------|
B|-----------7-----------------9-----------11x--11-------------------|
G|-----------6-----------------8-----------11x--11-------------------|
D|----8----------------10------------------11x--11-------------------|
A|--6------------6¡X6s8-------------8-8s9----------------------------|
E|-------------------------------------------------------------------|
   so scared to lose.
Part 1
E|-------------------11--|     |-----------------6-----|
B|-----------------------|     |------------6----------|
G|---------------10------|     |----------6---6--------|
D|------------11---------|     |--------8--------------|
A|-----------------------|     |-----------------------|
E|-----------------------|      |----------------------|
  and you say,              "stay."


Part 2a
   [D#m7-----]       [Fm7------] [F#---------------------------------|
E|-------------------------------------------------------------------|
B|-----------7-----------------9-----------11x--11-------------------|
G|-----------6-----------------8-----------11x--11-------------------|
D|----8----------------10------------------11x--11-------------------|
A|--6------------6¡X6s8-------------8-8s9----------------------------|
E|-------------------------------------------------------------------|


Part 1
E|---------11--|     |-----------6-----|
B|-------------|     |------6----------|
G|-----10------|     |----6---6--------|
D|--11---------|     |--8--------------|
A|-------------|     |-----------------|
E|-------------|      |----------------|
            you say                  i only hear what i want to.


Part 2a
   [D#m7-----]       [Fm7------] [F#---------------------------------|
E|-------------------------------------------------------------------|
B|-----------7-----------------9-----------11x--11-------------------| end
G|-----------6-----------------8-----------11x--11--end--------------|
D|----8----------------10------------------11x--11-------------------|
A|--6------------6¡X6s8-------------8-8s9----------------------------|
E|-------------------------------------------------------------------|
Outros vídeos desta música
    260 exibições
      • ½ Tom
      • A
      • Bb
      • B
      • C
      • Db
      • D
      • Eb
      • E
      • F
      • F#
      • G
      • Ab
    • Adicionar à lista

    Afinação da cifra

    Afinador online

      0 comentários

      Ver todos os comentários

      Entre para o Cifra Club PRO

      Tenha acesso a benefícios exclusivos no App e no Site

      • Chega de anúncios

      • Badges exclusivas

      • Mais recursos no app do Afinador

      • Atendimento Prioritário

      • Aumente seu limite de lista

      • Ajude a produzir mais conteúdo

      Cifra Club Pro

      Aproveite o Cifra Club com benefícios exclusivos e sem anúncios
      Cifra Club Pro
      Aproveite o Cifra Club com benefícios exclusivos e sem anúncios
      Ops (: Contenido disponible sólo en portugués.
      OK