Cifra Club

European Lover

Little Man Tate

Cifra: Principal (violão e guitarra)
tom: E
I think the drummer from this band used to be in my class!



Intro:

E
   _3_
  /   \
*|
*|
*|
-------------------------------------------|
-------------------------------------------|
-------------------------------------------|

F#m7
   _3_
  /   \
*|
*|
*|
-------------------------------------------|
-------------------------------------------|
-------------------------------------------|

Both these x 2 but the second time with this 2nd guitar over the top

E
-----------------------------------------------|
----s------p--------------h--------------------|
--11/13--13\11--13---11-11/13--13-13--11-13----|
-----------------------------------------------|
-----------------------------------------------|
-----------------------------------------------|

F#m7
----s----------------h-------------------------|
---9/10--10-10----9-9/10-10-10----10-10--------|
-----------------------------------------------|
-----------------------------------------------|
-----------------------------------------------|
-----------------------------------------------|

E
-----------------------------------12--12------|
----s------p--------------h--s-----12--12------|
--11/13--13\11--13---11-11/13/14---------------|
-----------------------------------------------|
-----------------------------------------------|
-----------------------------------------------|

F#m7
----s----------------h-------------------------|
---9/10--10-10--9--9-9/10-9-10----10-9---------|
-----------------------------------------------|
-----------------------------------------------|
-----------------------------------------------|
-----------------------------------------------|

Verse: (there are some fiddly bits at the end of each line around the 9th fret on the
strings)
E                           F#m7
Would you believe me if i told you that i'm sorry
E                           F#m7
I didn't mean to make you sad
E                           F#m7
When I heard that you were leaving home to travel
E                           F#m7        A7      B
I didn't get chance to take it back, but what I wanna know is..


Chorus:
C#m      B      E       C#m
How was London, How was Crete
C#m     A  B           E   C#m
How was Amsterdam and gay Paris
C#m     A       B     E   C#m             A               B         E C#m   
How was Barcelona and Sicicly and did you a little thought for me?
        A               B          E            C#m
Did you spare a little thought for me? (Oh Angeline?)
        A               B          E5(079900)
Did you spare a little thought for me?

riff into verse 2

C#m                   F#m7
---7--7-----4--------|--------5--5-----2-----------0----|
---------------------|-----------------------------0----|
---------------------|-----------------------------1----|
---------------------|-----------------------------2----|
---------------------|-----------------------------2----|
---------------------|-----------------------------0----|

Verse 2: (fast arpeggio on the chords used in the intro)
E                        F#m7
Do you remember when we queued outside forever?
E                  F#m7
Just to go and get ID'd
E                         F#m7
I walked you home you blagged a bottle of Zambuca
E                   F#m7       A7         B
And you tasted of aniseed, but what I wanna know is...

Chorus...


Solo:

(I will do this in the future but for the moment if you wanna figure it yourselfit is
on the E major pentatonic

scale in the 1st position)

Middle 8:
F#m7
I saw your dad last week
C#m
He told me you got married
A                       B
He was glad you settled down
F#m7                    C#m
I told him if you ever came back home to visit
A                   B
To ask you to pop around cos what I wanna know is...

over the B...
----------------------------------------------|
----------------------------------------------|
----13--11--9--------11--9----------8---------|
---------------11------------11--9--9---------|
------------------------------------9---------|
----------------------------------------------|


Chorus
00:00 / 00:00
Outros vídeos desta música
Repetir
Outros vídeos desta música
Compositor não encontrado.
238 exibições
    • ½ Tom
    • A
    • Bb
    • B
    • C
    • Db
    • D
    • Eb
    • E
    • F
    • F#
    • G
    • Ab
  • Adicionar à lista

    0 comentários

    Ver todos os comentários

    Entre para oCifra Club PRO

    Tenha acesso a benefícios exclusivos no App e no Site

    • Chega de anúncios

    • Prioridade de compra em lançamentos

    • Mais recursos no app do Afinador

    • Atendimento Prioritário

    • Descontos nos produtos Cifra Club

    • Ajude a produzir mais conteúdo

    00:00 / 00:00

    Cifra Club Pro

    Aproveite o Cifra Club com benefícios exclusivos e sem anúncios
    Cifra Club Pro
    Aproveite o Cifra Club com benefícios exclusivos e sem anúncios
    OK