Cifra Club

Joined By An Ipod

Little Man Tate

Cifra: Principal (violão e guitarra)
Selo Cifra Club: esta cifra foi revisada para atender aos critérios oficiais da nossa Equipe de Qualidade.
tom: D
[Intro]
E|----------------------------------------|
B|----------------------------------------|
G|------2------2--------------------------|
D|-0------4-------0---0-2-4---2---4-2-0---|
A|----------------------------------------|
E|----------------------------------------|

E|----------------------------------------|
B|----------------------------------------|
G|-2--4-----------------------------------|
D|--------4--2--4--0--0-2-4---2---4-2-0---|
A|----------------------------------------|
E|----------------------------------------|

[Verse 1]
D            F#m               G
Wherever you go, no matter how far
          F#m    Em           D
Even if I cannot reach you no more
                  F#m            G
I know that we're not perfect by far
                  F#m        Em     D
But joined by the sound of a humble guitar

[Interlude 1]
E|-10--------9------|
B|-----10-------7---|
G|------------------|
D|------------------|
A|------------------|
E|------------------|

[Verse 2]
D                      F#m           G
Some people say, we're joined at the hip
                      F#m             Em          D
But we're joined by a playlist, where we pick the hits
            F#m                       G
They got us through some of our worst times
            F#m        Em    D
Like broken hearts and dodgy lines

[Interlude 2]
E|--------------------|
B|----------2---------|
G|-2-----2----2-------|
D|----4----------4--5-|
A|--------------------|
E|--------------------|

       F#m        Em    D
Broken hearts and dodgy lines

[Bridge 1]
Bm                 F#m
Don't know why I'm talking
        G                 D
Cos you don't hear what I say
Bm                     F#m
I'm sure you'd love to listen
        G                A
But the tune gets in the way

[Interlude 3]
E|-10p9-9p7-7---------------------7h10-10-|
B|----------h10-10p7-7p5-5h7-7s10---------|
G|----------------------------------------|
D|----------------------------------------|
A|----------------------------------------|
E|----------------------------------------|

[Chorus 1]
D                    G     A
It's not ending, cos we're just at the start
D                       G         A
We're not over, just confused and drifting apart
D                         G          A
I'd play a song, but I've left my guitar in the car
D                            G                A
You'd love to leave, but the headphones won't stretch that far

[Verse 3]
D          F#m                G
Whatever I say, no matter how true
                  F#m       Em         D
It's seems that I can't get through to you
D                F#m             G
But as soon as I put my thumb on play
           F#m  Em  D
All of the rows go away

[Interlude 4]
E|-------9h10-9---|
B|-10-----------7-|
G|----------------|
D|----------------|
A|----------------|
E|----------------|

[Bridge 2]
Bm                 F#m
Don't know why I'm talking
        G                 D
Cos you don't hear what I say
Bm                     F#m
I'm sure you'd love to listen
        G                A
But the tune gets in the way

[Interlude 5]
E|-10p9-9p7-7----------------------7h10-10-|
B|-----------h10-10p7-7p5-5h7-7s10---------|
G|-----------------------------------------|
D|-----------------------------------------|
A|-----------------------------------------|
E|-----------------------------------------|

[Chorus 2]
D                    G     A
It's not ending, cos we're just at the start
D                       G         A
We're not over, just confused and drifting apart
D                         G          A
I'd play a song, but I've left my guitar in the car
D                            G                A
You'd love to leave, but the headphones won't stretch that far

[Solo]
E|----------------------------------------------------------------------------------------------|
B|-----------------------8--7------------------------8--7-------10----12--10-------10----12--10-|
G|-----7---7--6------7-------------7---7--6------7---------9h11----11---------9h11----11--------|
D|-7h9---9-------7h9---9-------7h9---9-------7h9---9--------------------------------------------|
A|----------------------------------------------------------------------------------------------|
E|----------------------------------------------------------------------------------------------|

E|-------10p7-10p7-10p7-10p7-10p7-10p7-10p7-10p7-10p9-9p7-7----------------------7h10-10-|
B|-12p10---------------------------------------------------h10-10p7-7p5-5h7-7s10---------|
G|---------------------------------------------------------------------------------------|
D|---------------------------------------------------------------------------------------|
A|---------------------------------------------------------------------------------------|
E|---------------------------------------------------------------------------------------|

[Chorus 3]
D                    G     A
It's not ending, cos we're just at the start
D                       G         A
We're not over, just confused and drifting apart
D                         G          A
I'd play a song, but I've left my guitar in the car
D                            G                A
You'd love to leave, but the headphones won't stretch that far

[Chorus 4]
D                    G     A
It's not ending, cos we're just at the start
D                       G         A
We're not over, just confused and drifting apart
D                         G          A
I'd play a song, but I've left my guitar in the car
D                            G                A
You'd love to leave, but the headphones won't stretch that far
Outros vídeos desta música
    3 exibições
      • ½ Tom
      • A
      • Bb
      • B
      • C
      • Db
      • D
      • Eb
      • E
      • F
      • F#
      • G
      • Ab
    • Adicionar à lista

    Afinação da cifra

    Afinador online

      0 comentários

      Ver todos os comentários

      Conseguiu tocar?

      0Tocaram0Ainda não

      Grave um vídeo tocando Joined By An Ipod e nos envie!

      Toque também

      1. Imagem do artista The RiflesShes Got Standards The Rifles
      2. Imagem do artista MilburnWell Well Well Milburn
      3. Imagem do artista The HollowaysGenerator The Holloways
      4. Imagem do artista Bromheads JacketLions On The Prowl Bromheads Jacket

      Entre para o Cifra Club PRO

      Tenha acesso a benefícios exclusivos no App e no Site

      • Chega de anúncios

      • Badges exclusivas

      • Mais recursos no app do Afinador

      • Atendimento Prioritário

      • Aumente seu limite de lista

      • Ajude a produzir mais conteúdo

      Cifra Club Pro

      Aproveite o Cifra Club com benefícios exclusivos e sem anúncios
      Cifra Club Pro
      Aproveite o Cifra Club com benefícios exclusivos e sem anúncios
      Ops (: Contenido disponible sólo en portugués.
      OK