Cifra Club

Hand Of The Dead

Living Sacrifice

Cifra: Principal (violão e guitarra)
Selo Cifra Club: esta cifra foi revisada para atender aos critérios oficiais da nossa Equipe de Qualidade.
tom: A
Intro
C#|----------------------------------------------------------------------------|
G#|----------------------------------------------------------------------------|
E |----------------------------------------------------------------------------|
B |----------------------------------------------------------------------------|
F#|----------------------------------------------------------------------------|
C#|-0000-0000---0000-0000---0000-0000---0000-0000---0000-----------------------|

   Riff A                      Verse
C#|---------------------------|------------------------------------------------|
G#|---------------------------|------------------------------------------------|
E |---------------------------|------------------------------------------------|
B |---------------------------|-----3^3^3^------3^3^3^------3^3^3^-------------|
F#|---------------------------|-----x-x-x-------x-x-x-------x-x-x--------------|
C#|-0000---0-0-0-110--0000-0--|-0-0-1-1-1---0-0-1-1-1---0-0-1-1-1--0-0-[3/7\5]-|

   Riff A
C#|---------------------------|------------------------------------------------|
G#|---------------------------|------------------------------------------------|
E |---------------------------|------------------------------------------------|
B |---------------------------|-----3^3^3^-------------------------------------|
F#|---------------------------|-2-2-x-x-x--------------------------------------|
C#|-0000---0-0-0-110--0000-0--|-0-0-1-1-1--------------------------------------|

   Gtr. 1 (1:29)           Gtr. 2 (1:29)                 end both on
C#|-----------------------|----------------------------|-----------------------|
G#|-----------------------|----------------------------|-----------------------|
E |-7-/-9-\-5---5-/-9-\-5-|----------------------------|-----------------------|
B |-x---x---x---x---x---x-|----------------------------|-2---------------------|
F#|-5-/-7-\-3---3-/-7-\-3-|-7-7-7--5-5-5--7-7-7--3-3-3-|-2---------------------|
C#|-----------------------|-5-5-5--3-3-3--5-5-5--1-1-1-|-0---------------------|

   Riff B
C#|----------------------------------------------------------------------------|
G#|----------------------------------------------------------------------------|
E |----------------------------------------------------------------------------|
B |----------------------------------------------------------------------------|
F#|-3-3-3-2---3-3-3-2---3-3-3-2---3-3-3-2---3-3-3-2--x-x-----------------------|
C#|-1-1-1-0---1-1-1-0---1-1-1-0---1-1-1-0---1-1-1-0--x-x-(x4)------------------|

C#|----------------------------------------------------------|-----------------|
G#|----------------------------------------------------------|- Repeat --------|
E |----------------------------------------------------------|- Riff B --------|
B |----------------------------------------------------------|- Tell ----------|
F#|-3-3-3-2---3-3-3-2---3-3-3-2---3-3-3-2---3-3--------------|- End -----------|
C#|-1-1-1-0---1-1-1-0---1-1-1-0---1-1-1-0---1-1-0-1--3~------|-----------------|
Outros vídeos desta música
    356 exibições
      • ½ Tom
      • A
      • Bb
      • B
      • C
      • Db
      • D
      • Eb
      • E
      • F
      • F#
      • G
      • Ab
    • Adicionar à lista

    Afinação da cifra

    Afinador online

      0 comentários

      Ver todos os comentários

      Entre para o Cifra Club PRO

      Tenha acesso a benefícios exclusivos no App e no Site

      • Chega de anúncios

      • Badges exclusivas

      • Mais recursos no app do Afinador

      • Atendimento Prioritário

      • Aumente seu limite de lista

      • Ajude a produzir mais conteúdo

      Cifra Club Pro

      Aproveite o Cifra Club com benefícios exclusivos e sem anúncios
      Cifra Club Pro
      Aproveite o Cifra Club com benefícios exclusivos e sem anúncios
      OK