Cifra Club

Heaven On The Way Down

Local H

Cifra: Principal (violão e guitarra)
Selo Cifra Club: esta cifra foi revisada para atender aos critérios oficiais da nossa Equipe de Qualidade.
tom: G
E|---------------------------------------------------------------------------|
B|---------------------------------------------------------------------------|
G|---------------------------------------------------------------------------|
D|---------------------------------------------------------------------------| x20
A|--4----2--2--2--2--2--0--2-------------------------------------------------|
E|--5----3--3--3--3--3--0--3-------------------------------------------------|

[Chorus]
    (G)     D              C
E|--3------2------0-------0--------------------------------------------------|
B|--0------3------0-------1--------------------------------------------------|
G|--0------2------2-------0--------------------------------------------------|
D|--0------0--x5--2-------2--------------------------------------------------| x2
A|--2-------------2--x5---3--x8----------------------------------------------|
E|--3--x5--------------------------------------------------------------------|


[Verse 2]

E|---------------------------------------------------------------------------|
B|---------------------------------------------------------------------------|
G|---------------------------------------------------------------------------|
D|--7---5--5--5--5--5--5--0--------------------------------------------------| x20
A|--7---5--5--5--5--5--5--0--------------------------------------------------|
E|--5---3--3--3--3--3--3--0--------------------------------------------------|

[Chorus]
    (G)     D              C
E|--3------2------0-------0--------------------------------------------------|
B|--0------3------0-------1--------------------------------------------------|
G|--0------2------2-------0--------------------------------------------------|
D|--0------0--x5--2-------2--------------------------------------------------|
A|--2-------------2--x5---3--x8----------------------------------------------|
E|--3--x5--------------------------------------------------------------------|


[Outro]

E|---------------------------------------------------------------------------|
B|---------------------------------------------------------------------------|
G|---------------------------------------------------------------------------|
D|--7---5---5--5--5--5--5--0-------------------------------------------------| x4
A|--7---5---5--5--5--5--5--0-------------------------------------------------|
E|--5---3---3--3--3--3--3--0-------------------------------------------------|
Outros vídeos desta música
    3 exibições
      • ½ Tom
      • A
      • Bb
      • B
      • C
      • Db
      • D
      • Eb
      • E
      • F
      • F#
      • G
      • Ab
    • Adicionar à lista

    Afinação da cifra

    Afinador online

      0 comentários

      Ver todos os comentários

      Entre para o Cifra Club PRO

      Tenha acesso a benefícios exclusivos no App e no Site

      • Chega de anúncios

      • Mais recursos no app do Afinador

      • Atendimento Prioritário

      • Aumente seu limite de lista

      • Ajude a produzir mais conteúdo

      Cifra Club Pro

      Aproveite o Cifra Club com benefícios exclusivos e sem anúncios
      Cifra Club Pro
      Aproveite o Cifra Club com benefícios exclusivos e sem anúncios
      OK