Cifra Club

Miss Machine

Lord Of The Lost

Cifra: Principal (violão e guitarra)
Selo Cifra Club: esta cifra foi revisada para atender aos critérios oficiais da nossa Equipe de Qualidade.
tom: C
E|------------------------------------------------------------------------------------|
B|------------------------------------------------------------------------------------|
G|------------------------------------------------------------------------------------|
D|------------------------------------------------------------------------------------|
A|------------------------------------------------------------------------------------|
E|---0-12b13-0---0-12b13-0---0-3-0-5b6-5-3-0---0-12b13-0---0-12b13-0---0-3-0-5b6-5-3-0|

E|----------------------------------------------------------------------------------|
B|----------------------------------------------------------------------------------|
G|----------------------------------------------------------------------------------|
D|----------------------------------------------------------------------------------|
A|-------------------------------------------------------------------7--------------|
E|---0-12b13-0---0-12b13-0---0-3-0-5b6-5-3-0---0-12b13-0---0-12b13-0-7-----6-7-5-3-0|


[Verse 1]

E|--------------------------------------------------------------------|
B|--------------------------------------------------------------------|
G|--------------------------------------------------------------------|
D|--------------------------------------------------------------------|
A|--------------------------------------------------------------------|
E|-------------------0-3-0-5b6-5-3-0-------------------0-3-0-5b6-5-3-0|

E|-------------------------------------------------------------------------|
B|-------------------------------------------------------------------------|
G|-------------------------------------------------------------------------|
D|-------------------------------------------------------------------------|
A|--------------------------------------------------------------------11-11|
E|-------------------0-3-0-5b6-5-3-0----------------11-11-11-11-11-11-11-11|
                                                    Pm Pm Pm Pm Pm Pm Pm Pm

[Pre-Chorus] (only after the 1st Verse)

E|----------------------------------------------------------------------------|
B|----------------------------------------------------------------------------|
G|----------------------------------------------------------------------------|
D|----------------------------------------------------------------------------|
A|-------------------------------------------------------------5-5---5-7------|
E|-0-0-0---0-0-0---0---2-2-2---2-2-2---2---3-3-3---3-3-3---3---5-5---5-7------|


[Chorus]

E|-------------------------------------------------------------------|
B|-------------------------------------------------------------------|
G|-------------------------------------------------------------------|
D|-------------------------------------------------------------------|
A|-0-0---0-0---0-0-10-10---10-10---10-10-8-8---8-8---8-8-7-7---7-7---|
E|-0-0---0-0---0-0-10-10---10-10---10-10-8-8---8-8---8-8-7-7---7-7---|
                   
E|-----------------------------------------------------------------|
B|-----------------------------------------------------------------|
G|-----------------------------------------------------------------|
D|-----------------------------------------------------------------|
A|-7-7-5-5---5-5---5-5-3-3---3-3---3-3-2-2---2-2---2-2/7-7---7-7---|
E|-7-7-5-5---5-5---5-5-3-3---3-3---3-3-2-2---2-2---2-2/7-7---7-7---|

E|-------------------------------------------------------------------|
B|-------------------------------------------------------------------|
G|-------------------------------------------------------------------|
D|-------------------------------------------------------------------|
A|-0-0---0-0---0-0-10-10---10-10---10-10-8-8---8-8---8-8-3-3---3-2---|
E|-0-0---0-0---0-0-10-10---10-10---10-10-8-8---8-8---8-8-3-3---3-2---|

E|-------------------------------------------------------------------|
B|-------------------------------------------------------------------|
G|-------------------------------------------------------------------|
D|-------------------------------------------------------------------|
A|-2-2-8-8---8-8-------3-3---3-3-------5-5---5-5--3--5--7------------|
E|-2-2-8-8---8-8-------3-3---3-3-------5-5---5-5--3--5--7------------|


[Interlude] (between 1st Chorus and 2nd Verse)

E|------------------------------------------------------------------------------------|
B|------------------------------------------------------------------------------------|
G|------------------------------------------------------------------------------------|
D|------------------------------------------------------------------------------------|
A|------------------------------------------------------------------------------------|
E|---0-12b13-0---0-12b13-0---0-3-0-5b6-5-3-0---0-12b13-0---0-12b13-0---0-3-0-5b6-5-3-0|


[Bridge]

E|--------------------------------------------------------------------------|
B|--------------------------------------------------------------------------|
G|--------------------------------------------------------------------------|
D|--------------------------------------------------------------------------|
A|-8-8-8-8-8-8-8-8-8-8-8-8-8-8-8-8------------------------------------------|
E|-8-8-8-8-8-8-8-8-8-8-8-8-8-8-8-8---0-12b13-0---0-12b13-0---0-3-0-5b6-5-3-0|

E|----------------------------------------------------------------|
B|----------------------------------------------------------------|
G|----------------------------------------------------------------|
D|----------------------------------------------------------------|
G|-8-8-8-8-8-8-8-8-8-8-8-8-8-8-8-8-3-3-3-3-3-3-3-3/7-7-7-7-7-7-7-7|
C|-8-8-8-8-8-8-8-8-8-8-8-8-8-8-8-8-3-3-3-3-3-3-3-3/7-7-7-7-7-7-7-7|
Outros vídeos desta música
    12 exibições
      • ½ Tom
      • A
      • Bb
      • B
      • C
      • Db
      • D
      • Eb
      • E
      • F
      • F#
      • G
      • Ab
    • Adicionar à lista

    Afinação da cifra

    Afinador online

      0 comentários

      Ver todos os comentários

      Entre para o Cifra Club PRO

      Tenha acesso a benefícios exclusivos no App e no Site

      • Chega de anúncios

      • Badges exclusivas

      • Mais recursos no app do Afinador

      • Atendimento Prioritário

      • Aumente seu limite de lista

      • Ajude a produzir mais conteúdo

      Cifra Club Pro

      Aproveite o Cifra Club com benefícios exclusivos e sem anúncios
      Cifra Club Pro
      Aproveite o Cifra Club com benefícios exclusivos e sem anúncios
      Ops (: Contenido disponible sólo en portugués.
      OK